Song name
# A B C D E F G H I J K L M N O P Q R S T U V W X Y Z

Between The Buried And Me - Desert Of Song tab

C# Standard

|----0-----------10------------------------0------------------------|
|---------10h12--12------------------8h10--8------------------------|
|----7/9--9------9----------9--7/9---9-----9-------9----------------|
|----7/9--------------------9--7/9---------9---------9--------------|
|-------------------------------------------------------------------|
|-0----------------------0-----------------------0------------------|

|-------------0---------------------0---------------------10--------|
|-----------6-----6---------------3-----3-----7/9--10h12--12--------|
|---------4---------4-----------4---------4---7/9--9------9---------|
|-------7-------------7-----5/6-------------------------------------|
|---7/8-------------------------------------------------------------|
|-0---------------------0-------------------0-----------------------|

|------------------0-----------------------0---------------------0--|
|------------8h10--8---------------------6-----6---------------3----|
|---9--7/9---9-----9-------9-----------4---------4-----------4------|
|---9--7/9---------9---------9-------7-------------7-----5/6--------|
|--------------------------------7/8--------------------------------|
|-0----------------------0-----0---------------------0--------------|
Tap to rate this tab
 
# A B C D E F G H I J K L M N O P Q R S T U V W X Y Z