Song name
# A B C D E F G H I J K L M N O P Q R S T U V W X Y Z

Between The Buried And Me - Desert Of Song chords

Desert of Song: Solo

Between the Buried and Me

Tabbed by: Steve L
lobey-smells@hotmail.com


I saw the tab submitted before this but thought that it was a little off in some areas. 
my version,
which I think nails some of the jazzy slides and hammer-on/pull-off sections a little 
effectively.

Great solo by an amazing band, good luck!

Tuning: C# Standard (C#, F#, B, E, Ab, C#)

e|---------------------------------------------------------------------------|
B|---------------------------------------------------------------------------|
G|-9-11/13---13^14r13p11----11h13h14-11h12----9-7/9--------7-9--9^10r9p7-----|
D|-----------------------14----------------------------7/9---------------10--|
A|---------------------------------------------------------------------------|
E|---------------------------------------------------------------------------|

                           [Let Ring]
e|-------------------------------------------10/12---16^17r16p14\12----------|
B|--------8/10--12^13r12p10-9----------10h12------------------------12-------|
G|7h9h10---------------------------------------------------------------------|
D|---------------------------------------------------------------------------|
A|---------------------------------------------------------------------------|
E|---------------------------------------------------------------------------|

     [Let Ring]                              [    Let Ring    ]
e|------15--------------------------------------------12----12---------------|
B|15/17-----------------------------------------12-13----13------12----------|
G|-------------14/16---12--14p12----15p14p12-14---------------------15p14p12-|
D|-------------15/17---12--------14------------------------------------------|
A|---------------------------------------------------------------------------|
E|---------------------------------------------------------------------------|
                 [Let Ring]
e|---------------------------------------------------------------------------|
B|---------------------8----------10h12^13r12---8----------------------------|
G|-------------------7-------9-12------------------7h9p7---------------------|
D|12h14------12p9-10------------------------------------9------5---7---5h7p5-|
A|-----------------------------------------------------------7---7---7-------|
E|---------------------------------------------------------------------------|

							    [Let Ring]
e|---------------------------------------------------------------------------|
B|-----------------------------------------10-13~~---------------------------|
G|---7/9------9h11^12r11p9--9h11h12--11-12-----------------------------------|
D|-------9h12-------------12-------------------------------------------------|
A|7--------------------------------------------------------------------------|
E|---------------------------------------------------------------------------|


| ^  half bend
| r  release bend
| /  slide up
| \  slide down
| h  hammer-on
| p  pull-off
| ~  vibrato
| +  harmonic
| x  Mute note
Tap to rate this tab
# A B C D E F G H I J K L M N O P Q R S T U V W X Y Z