Song name
# A B C D E F G H I J K L M N O P Q R S T U V W X Y Z

Between The Buried And Me - Mirrors tab

Tuning:C#

Intro
|-------------------3p2p0-------5---7---------------------------------------|
|--0-----0h5--7--------------4h7----5-------10-----12---8h7-----0-----------|
|-3-3---3-----5-----------4/5-------4----------9----9------9----9-----------|
|----4h5------7---------------------5-----10-------10----------10-----------|
|-------------6------------------------------------12----------10-----------|
|--------------------------------------------------------------12-----------|

|-------2---------------------3-----2----0----------------------------------|
|-----5---5-------------------3-----4----0----------------------------------|
|----5-----5-----8------7-----3-----5----0----------------------------------|
|---4-------4----4------4-----5-----4----2----------------------------------|
|--3----0--------6------5-----x-----x----2----------------------------------|
|-----------------------------3-----2----0----------------------------------|


Verse (2x)
|-------2---------------2-----0----0h2-------2---------------2-----0-------|
|--3-3-3--3---3---3-3-3---3-3---3--------3-3---3---3---3-3-3---3-3--3------|
|-0---------0-------------------------4----------4-------------------------|
|--------------------------------------------------------------------------|
|--------------------------------------------------------------------------|
|--------------------------------------------------------------------------|


|-------2---------------2-----0----0h2-------2---------------2-----0-------|
|--3-3-3--3---3---3-3-3---3-3---3--------3-3---3---3---3-3-3---3-3--3------|
|-0---------0-------------------------4----------4-------------------------|
|--------------------------------------------------------------------------|
|--------------------------------------------------------------------------|
|--------------------------------------------------------------------------|


|-------0---2-------2-|
|-----3---3---3--3h5--|
|-0h4-----------4-----|
|---------------------|       <2x
|---------------------|
|---------------------|


|--5p3-------3--------2---0-|
|------3---3--------3---3---|
|--------0--------0---------|
|---------------------------|
|---------------------------|
|---------------------------|

|--2------0-(0)------------|
|----3---------------------|
|------0-------------------|
|---------------        ---|3x
|--------------------------|
|--------------------------|

Cool little bridge part


|--3p2---------2h3----------3--|
|------3-----3---------3----3--|
|--------2h4-------0-5---5-----|
|------------------------------|         <3x
|------------------------------|
|------------------------------|

|--5p2---------2h3---------2h3-|
|------3-----3---------3-------|
|--------2h4-------0-5---5-----|
|------------------------------|
|------------------------------|
|------------------------------|


|--3-----2----0----------------------------------|
|--3-----4----0----------------------------------|
|--3-----5----0----------------------------------|
|--5-----4----2----------------------------------|
|--x-----x----2----------------------------------|
|--3-----2----0----------------------------------|


Intro part again
|-------------------3p2p0-------5---7---------------------------------------|
|--0-----0h5--7--------------4h7----5-------10-----12---8h7-----0-----------|
|-3-3---3-----5-----------4/5-------4----------9----9------9----9-----------|
|----4h5------7---------------------5-----10-------10----------10-----------|
|-------------6------------------------------------12----------10-----------|
|--------------------------------------------------------------12-----------|

|-------2---------------------3-----2----0----------------------------------|
|-----5---5-------------------3-----4----0----------------------------------|
|----5-----5-----8------7-----3-----5----0----------------------------------|
|---4-------4----4------4-----5-----4----2----------------------------------|
|--3----0--------6------5-----x-----x----2----------------------------------|
|-----------------------------3-----2----0----------------------------------|
Tap to rate this tab
# A B C D E F G H I J K L M N O P Q R S T U V W X Y Z