Song name
# A B C D E F G H I J K L M N O P Q R S T U V W X Y Z

Between The Buried And Me - Need For Repetition tab

 Tunning: C# F# B E G# C#




   Intro
C#|-----------| 
G#|-----------|
E |-----------| 
B |-2~--------| 
F#|-2~--------| 
C#|-0~--------| 

|-------------------------------------|
|------6/12-12------------------------| \
|-------------------5/4-4-------------|  4
|---2--3/9--9--2------------2-2-2-3---| /
|---2----------2----3/2-2---2-2-2-3---|
|---0----------0------------0-1-0-1---|
pm                          . . . . 

|-----------| 
|-----------|
|-----------| 
|-2~--------| 
|-2~--------| 
|-0~--------| 

|------------| 
|------------|
|------------| 
|--2-2-2-3---| 
|--2-2-2-3---| 
|--0-1-0-1---| 
pm . . . .

|-----------| 
|-----------|
|-----------| 
|-2~--------| 
|-2~--------| 
|-0~--------| 

|-----------| 
|-----------|
|-----------| 
|--2-2-2-3--| 
|--2-2-2-3--| 
|--0-1-0-1--| 
pm . . . .

|-----------| 
|-----------|
|-----------| 
|-2~--------| 
|-2~--------| 
|-0~--------| 

|------------| 
|------------|
|------------| 
|--2-2-2-3---| 
|--2-2-2-3---| 
|--0-1-0-1---| 
pm . . . .

|-----------| 
|-----------|
|-----------| 
|-2~--------| 
|-2~--------| 
|-0~--------| 

|------------| 
|------------|
|------------| 
|--2-2-2-3---| 
|--2-2-2-3---| 
|--0-1-0-1---| 
pm . . . .

|-------------------------------------|
|------6/12-12------------------------| \
|-------------------5/4-4-------------|  4
|---2--3/9--9--2------------2-2-2-3---| /
|---2----------2----3/2-2---2-2-2-3---|
|---0----------0------------0-1-0-1---|
pm                          . . . . 

|----------------------------| 
|---6/12--12/6---------------| \
|----------------------------|   4 Guitar 1
|---3/9---9/3----------------| /   
|----------------------------|
|----------------------------|

|----------------------------|
|----------------------------|  \
|----------------------------|    3 Guitar 2
|---2~-----\\\\-----2-2-2-3--|  /
|---2~------\\\\----2-2-2-3--|
|---0~--------------0-1-0-1--|
pm                  . . . .
       (Pick Scratching)

|------------------------------------|
|------------------------------------|
|------------------------------------|
|--2-2-2-2-2-1--2--------------------|  Guitar 2
|--2-2-2-2-2-3--2---------------15---|
|--0-1-0-1-0-3--0---------------15/0-|
pm . . . . . .   (          fret slide)

|-------------------------------------|
|------6/12-12------------------------| \
|-------------------5/4-4-------------|  8
|---2--3/9--9--2------------2-2-2-3---| /
|---2----------2----3/2-2---2-2-2-3---|
|---0----------0------------0-1-0-1---|
pm                          . . . . 


|-----------| 
|-----------|
|-----------| 
|-2~--------| 
|-2~--------| 
|-0~--------| 


           (Tremolo Pick)

|-----------------------------------------|
|-----------------------------------------|
|-----------------------------------------|
|------------------------------------578--|
|----467-------467-----467--------467-----|
|-356-------356-----356--------356--------|


|---------------------------------------------------------------|
|---------------------------------------------------------------|
|-------------------689------------------689----------------689-|
|----------------578 -----------------578------578-------578----|
|----467------467--------467-----467--------467-------467-------|
|-356------356--------356----356---------356-------356----------|


|-------------------------------------------------|
|-------------------------------------------------|
|-------------------689----------------689--------|
|----------------578----------------578-----------|
|----467------467--------467-----467--------------|
|-356------356--------356-----356-----------------|

|-------------------------------------------------|
|-------------------------------------------------|
|-------------------689----------------689--------|
|-------578-------578---------------578-----------|
|----467-------467-------467-----467--------------|
|-356-------356-------356-----356-----------------|

|-------------------------------------------------|
|-------------------------------------------------|
|-------------------689----------------689--------|
|----------------578------568-------578-----------|
|----467------467------467-------467--------------|
|-356------356------356-------356-----------------|



|----------------------------------------------------------|
|----------------------------------------------------------|
|----------------------------------------------------------|
|-5-6-4----------5-6-4--------578--5-6-4-5-6-4-5-6-4-5-4-3-|
|-5-6-4-----467--5-6-4-----467-----5-6-4-5-6-4-5-6-4-5-4-3-|
|-3-4-2--356-----3-4-2--356--------3-4-2-3-4-2-3-4-2-3-2-1-|
PM                                                   . . .

|----------------------------------|
|----------------------------------|
|----------------------------------|
|----------------------------------|
|--0---0---0---0---0---0---0---0---|
|-3-3-2-2-3-3-2-2-3-3-2-2-8-8-7-7--|

         Clean

|-------------------------------|    
|-------------------11----------|     -
|----------------10-------0--0--|       \  
|----5-----5/9-9---------7--4-4-|        - 8 times
|---7--7-6--------------5--5----|       / 
|-------------------------------|     -

        Distorted 
|-------------------------------|    
|------------------11-----------|     -
|----------------10-------0--0--|       \  
|----5-----5/9--9--------7--4-4-|        - 16 times
|---7--7-6--------------5--5----|       / 
|-----------------00------------|     _
        Clean outro
|-------------------------------|    
|-------------------11----------|     -
|----------------10-------0--0--|       \  
|----5-----5/9-9---------7--4-4-|        - 25 times
|---7--7-6--------------5--5----|       / 
|-------------------------------|     -


     Then scratching with wah pedal
Tap to rate this tab
 
# A B C D E F G H I J K L M N O P Q R S T U V W X Y Z