Between The Buried And Me - Desert Of Song tab

After reviewing the "making of The Great Misdirect" DVD, I realized there were no 
tabs for this intro online. I'm 99% sure this is accurate, as I studied Paul Waggoner playing 
on the DVD.

Tuned to C# standard

Intro

C#|--------------------10--------|--------------------0--------|
G#|-----------10h12----12--------|-------------8h10---8--------|
E |---7/9-----9----------------9-|---7/9------9-------9------9-|
B |---7/9----------------------9-|---7/9--------------9-----9--|
F#|------------------------------|-----------------------------|
C#|-0-------0----------------0---|-0--------0--------------0---|

C#|----------------0-------------|---------0-------|
G#|--------------6-----6---------|-------3-----3---|
E |-----------4----------4-------|---3h4---------4-|
B |-------5-7--------------7-----|-6---------------|
F#|---7/8------------------------|-----------------|
C#|-0------------------------0---|-----------------|

C#|--------------------10--------|--------------------0--------|
G#|-----------10h12----12--------|-------------8h10---8--------|
E |---7/9-----9----------------9-|---7/9------9-------9------9-|
B |---7/9----------------------9-|---7/9--------------9-----9--|
F#|------------------------------|-----------------------------|
C#|-0-------0----------------0---|-0--------0--------------0---|

C#|----------------0-------------|---------0-------|
G#|--------------6-----6---------|-------3---------|
E |-----------4----------4-------|---3h4-----------|
B |-------5-7--------------7-----|-6---------------|
F#|---7/8------------------------|-----------------|
C#|-0------------------------0---|-----------------|
Tap to rate this tab
 
# A B C D E F G H I J K L M N O P Q R S T U V W X Y Z