Song name
# A B C D E F G H I J K L M N O P Q R S T U V W X Y Z

Between The Buried And Me - Extremophile Elite tab

I haven't done a tab in a very long time, but I was messing around trying to learn parts
of some of the other songs from Parallax II that are on Tab Pro on here,some of which
are really good by the way, and i saw that this one wasn't on here. So after about 10-15 
min or so of hashing it out, I put together what i think is a pretty accurate tab for the
intro. I definitely won't say its perfect because i didn't write the song, but feel free 
to add anything you may come across for this awesome BTBAM jam. Enjoy!

Tuning: C# Standard (C#,F#,B,E,G#,C#)

(0:08)
    Quarter notes
|-----------------------------------------------------------0---|
|-----------------------------------------------------------5---|
|-9-------------------------------7---9---------------------4---|(X2)
|-----7---9--------10--7--6---------------7--------10--7----2---|
|-7-------------------------------5---7---------------------2---|
|-----5---7--------8---5--4---------------5--------8---5----0---|


(0:26)
     I broke it apart to make it easier to hear the pattern. The tricky part on this
riff is stringing together the end of the riff back with the beginning when you repeat 
the bar.

      Eighth Notes
|----------------------------------------------------------------|
|----------------------------------------------------------------|
|----------------------------------------------------------------| (X4)
|-9--0----6--7----0--2----6--7-----9--10-----9-------------------|
|-----------------------------------------------7----------------|
|----------------------------------------------------------------|


(0:35)
              Sixteenth Notes
   P.M.=========================================================>
|--------------------------------------------------------------------|
|--------------------------------------------------------------------|
|--------------------------------------------------------------------|(X4)
|--9-9---6-6---7-7---0-0---2-2---6-6---7-7---9-9---10-10---9-9-------|
|----------------------------------------------------------------7-7-|
|--------------------------------------------------------------------|


|----------------------------------0--|
|----------------------------------5--|
|---9------------------------------4--|
|--------7----9--------10----7-----2--|
|---7------------------------------2--|
|--------5----7--------8-----5-----0--|

That's all for now, folks! Thanks for your time.
Tap to rate this tab
 
# A B C D E F G H I J K L M N O P Q R S T U V W X Y Z