Song name
# A B C D E F G H I J K L M N O P Q R S T U V W X Y Z

Between The Buried And Me - Melting City tab

Attempt at intro and solo
Tuning: 1 1/2 steps down
/\=bend
.=palm mute
____=sustain note
/=slide up
\=slide down
h=hammer on
p=pull off



|------------------------8--------------------------------|
|-----10/\------7----------7------------------------------|
|------------8------8----------8--------------------------|
|-----------------------------------10\9---7--------------|
|---------------------------------------------------------|
|---------------------------------------------------------|

|---------------------------------------------------------|
|---------------------------------------------------------|
|---------------------------------------------------------|
|---------------------------------------------------------|
|----10--9----7--6----9h10p9---6--------------------------|
|-------------------------------------------8--7----------|

|-----------------------------------------------|
|-----------------------------------------------|
|-----------------------------------------------|
|-----------------------------------------------|
|----------------------------3-----------6------|
|---8p7---5---3---2------2----2-2---2-----------|
                    .     .               ..

|--------------------------------------------------------------|
|--------------------------------------------------------------|
|-------------------------------------------------8------------|
|---------------------------------------------9------7---------|
|---2--222 2-------10--9---6--7--10----------------------------|
|---0--000-0---------------------------------------------------|
     .   . . .  .           .   .


|---------------------------------------------------------|
|----------------------------10___------------------------|
|----------------------------------8----------------------|
|---------------------------------------------------------|
|-----10--9--7--6-----------------------------------------|
|---------------------7-----------------------------------|
         .    .    .   .   .


|------------8------------------------------------------|
|-----------------7--------------8/10-------------------|
|-----------------------------------------9-8-----------|
|-------------------------------------------------------|
|------------------------6------------------------------|
|-----7-------------------------------------------------|
       .                      .

------------------------------------------------------------|
|-----------------------------------------------------------|
|-----------------------------------------------------------|
|---10---9--7-----------------------------------------------|
|------------------10-9-----9h10--12---7-6- ----------------|
|---------------------------------------------------8-7-----|

----------------------------------------------------------|
|---------------------------------------------------------|
|---------------------------------------------------------|
|---------------------------------------------------------|
|---------------------3---------6-------------------------|
|-----8p7---5-3-2-2---2-2--2------------------------------|
                 . .  .   .     .   .   .

|--------------------------------------------------------|
|--------------------------------------------------------|
|-----9\-----------------9\------------------------------|
|-----x------------------x-------------------------------|
|-----7\----222--------7\----222-------------------------|
|-----------000---------------000------------------------|
               . . .                   . . .

|---------------------------------------------------------|
|---------12---------------12-----------12----------------|
|--------------11---------------11------------------------|
|---9-----------------9--------------9--------------------|
|---------------------------------------------------------|
|---------------------------------------------------------|
     .                     .                   .

|--------------------------------------------------------------|
|-----------13------------------13------------------13---------|
|------------------12------------------12----------------------|
|---10--------------------10-----------------10----------------|
|--------------------------------------------------------------|
|--------------------------------------------------------------|
       .                          .                        .


|---------------------------------------------10--------|
|---15---------------------10--12--13-------------------|
|--------14--------14-----------------------------------|
|--------------12---------------------------------------|
|-------------------------------------------------------|
|-------------------------------------------------------|
                    .

|--/12-------------12------------------12-----------------|
|--------12--------------12-----------------12------------|
|-------------12---------------12-------------------------|
|---------------------------------------------------------|
|---------------------------------------------------------|
|---------------------------------------------------------|

|-----------------------------------------------------------|
|-----13---------------------14-----------------------------|
|----------12--------12-----------12-----------12-----------|
|----------------14-----------------------14----------------|
|-----------------------------------------------------------|
|-----------------------------------------------------------|


|---------------------------------------------------------|
|---15------------------------16--------------------------|
|---------14----------14-----------14---------------------|
|---------------16--------------------------16------------|
|---------------------------------------------------------|
|---------------------------------------------------------|

|----17\16------12---------12----------------------------------|
|-----------------------12----------12-------------------------|
|-------------------------------------------12---------12------|
|-------------------------------------------------14-----------|
|--------------------------------------------------------------|
|--------------------------------------------------------------|


|----------------------12---------------12-------------|
|---------------12-_____-------12-------12-------------|
|--13/14-----------------------------------------------|
|------------------------------------------------------|
|------------------------------------------------------|
|------------------------------------------------------|
Tap to rate this tab
# A B C D E F G H I J K L M N O P Q R S T U V W X Y Z