Song name
# A B C D E F G H I J K L M N O P Q R S T U V W X Y Z

Between The Buried And Me - Shevanel Take 2 tab

Highlighted       Show chord diagrams
-----------------------------------------------------------------------------
                 SHEVANEL (TAKE 2) - Between the Buried and Me
-----------------------------------------------------------------------------
Tabbed by:  Paul Fake
Email:  trashpilepunker@hotmail.com

Tuning: EADGBE


I tabbed this song for standard tuning EADGBE, though it is normally in some 
C# standard whatnot.  These are only the acoustic chords, because you can 
find the lead part tabbed out by some other dude.  The strumming pattern 
is easy to figure out.  Admittedly, the chorus part sounds a little
awkward to me, so if you have anything better go ahead and email me.

Intro:

e|-----------------------------------------------------------------------|
B|-----------------------------------------------------------------------|
G|--6----6--6------6----6--6---------------------------------------------|
D|--6----6----6----6----6----6-------------------------------------------|
A|--4----4------4--4----4------4-----------------------------------------|
E|--2----2---------2----2------------------------------------------------|

Verse:
"My head will not rest on this pillow..." x2
e|-----------------------------------------------------------------------|
B|-----------------------------------------------------------------------|
G|--5-x4---5-x1---3-x1---8-x2--------------------------------------------|
D|--6------6------4------5-----------------------------------------------|
A|--4------4------4------6-----------------------------------------------|
E|--4------6------2------------------------------------------------------|

Prechorus:
"This world inside..."
e|-----------------------------------------------------------------------|
B|-----------------------------------------------------------------------|
G|---------4--x2---------8-x1--9h8--8-x1---------------------------------|
D|--6--x2--6------6--x2--9-----9----9------------------------------------|
A|--7------4------7------7-----7----7------------------------------------|
E|--5------4------5------------------------------------------------------|

Chorus:
"And I will not be afraid to love..."
e|-----------------------------------------------------------------------|
B|-----------------------------------------------------------------------|
G|--8--x2----------------3--x2-------------------------------------------|
D|--9------7--x2--6--x2--4-----------------------------------------------|
A|--9------7------6------4-----------------------------------------------|
E|--7------5------4------2-----------------------------------------------|

Same goes for the second half of the song after the lead.  The chords under 
the lead part are far too obscured to distinguish, so I did not tab them.


| /  slide up
| \  slide down
| h  hammer-on
| p  pull-off
| ~  vibrato
| +  harmonic
| x  Mute note
============================================================================
Tap to rate this tab
 
# A B C D E F G H I J K L M N O P Q R S T U V W X Y Z