Song name
# A B C D E F G H I J K L M N O P Q R S T U V W X Y Z

Between The Buried And Me - What We Have Become tab

Just about 100% perfect.
c# tuning.

Outro Chords, too lazy to illustrate the picking.

-----------------------------------------------|
--8----1---0-------4---5---4---7---------------|
--11---4---3---3---6---8---6---8---------------|
--12---2---1---6---4---6---4---9---------------|
--10---0-------4---2---4---0---6---------------|
-----------4---2-------------------------------|


---------------------------7-------------------|
---------0---9----8----5---9-------------------|
---4----3----11---11---8---11------------------|
--6-6--4-----9----10---7---9-------------------|
-------------7----9----6-----------------------|
---------------------------0-------------------|
Tap to rate this tab
# A B C D E F G H I J K L M N O P Q R S T U V W X Y Z