Song name
# A B C D E F G H I J K L M N O P Q R S T U V W X Y Z

Between The Buried And Me - Naked By The Computer tab

#----------------------------------PLEASE NOTE---------------------------------#
#This file is the author's own work and represents their interpretation of the #
#song. You may only use this file for private study, scholarship, or research. #
#------------------------------------------------------------------------------#

NAKED BY THE COMPUTER
As recorded by Between the Buried and Me
(From the 2002 Album BETWEEN THE BURIED & ME)

Transcribed by Mikey Furbs
	



Gtr I (C# F# B E G# C#) - 'Clean'
Gtr II (C# F# B E G# C#) - 'Rhythm'
Gtr III (C# F# B E G# C#) - 'Lead'

  Q=100
 3/4
  Gtr I
  E E E E E E   E E E E E E   E E E E E E   E E E E E E
|---3---------|---3---------|---3---------|---3---------|
|-7---7---7---|-7---7---7---|-7---7---7---|-7---7---7---|
|-------0---0-|-------0---0-|-------0---0-|-------0---0-|
|-5-------5---|-5-------5---|-5-------5---|-5-------5---|
|-------------|-------------|-------------|-------------|
|-------------|-------------|-------------|-------------|


  E E E E E E   E E E E E E   E E E E E E   E E E E E E
|-------5-----|-------5-----|-------5-----|-------5-----|
|-----3---3---|-----3---3---|-----3---3---|-----3-------|
|---6-------6-|---6-------6-|---6-------6-|---6-----6---|
|-4-----------|-4-----------|-4-----------|-4---------4-|
|-------------|-------------|-------------|-------------|
|-------------|-------------|-------------|-------------|


  E E E E E E   E E E E E E   E E E E E E   E E E E E E
|-------0-----|-3-----0-----|---------0---|---------0-2--|
|-----3---3---|---3-----3---|-------3---3-|-------1------|
|---0---------|-----0-----0-|-----0-------|-----4--------|
|-------------|-------------|---4---------|---2----------|
|-3---------3-|-3-----------|-2-----------|-0------------|
|-------------|-------------|-------------|--------------|


  Q  E  E   E  E   Q  E E E E   Q  E  E   E  E   Q  E E E E
|-3---------2----|--------2---|-3---------2----|--------2-3--|
|----0-(0)-(0)-0-|-3----------|----0-(0)-(0)-0-|-3-----------|
|----------------|----0-------|----------------|----0--------|
|-2-----2--------|-2----2---2-|-2-----2--------|-2----2------|
|----------------|------------|----------------|-------------|
|----------------|------------|----------------|-------------|


  E E E E E E   E E e e E E   E E E E E E   E E E E E  E
|-0---3-----0-|-------------|-------------|---0-2-0--------|
|-------3-----|-3---0-1-3---|-----1-------|----------------|
|---0-----0---|---0-0-0-0---|---4---4-----|-2-------2-(2)--|
|-------------|-------------|-2-------2-0-|------------0---|
|-3-----------|-----2-3-5-0-|-------------|----------------|
|-------------|-------------|-------------|----------------|


  Q  E  E   E  E   Q  E E E E   Q  E  E   E  E   Q  E E E E
|-3---------2----|--------2---|-3---------2----|--------2-3--|
|----0-(0)-(0)-0-|-3----------|----0-(0)-(0)-0-|-3-----------|
|----------------|----0-------|----------------|----0--------|
|-2-----2--------|-2----2---2-|-2-----2--------|-2----2------|
|----------------|------------|----------------|-------------|
|----------------|------------|----------------|-------------|


  E E E E E E   E E e e E E   E E E E E E   E E E E E  E
|-0---3-----0-|-------------|-------------|---0-2-0--------|
|-------3-----|-3---0-1-3---|-----1-------|----------------|
|---0-----0---|---0-0-0-0---|---4---4-----|-2-------2-(2)--|
|-------------|-------------|-2-------2-0-|------------0---|
|-3-----------|-----2-3-5-0-|-------------|----------------|
|-------------|-------------|-------------|----------------|


  Wx4
|--------|
|--------|
|--------|
|--------|
|--------|
|--------|


    Gtr II
    H   E E   Q.  E E E    Q.    E  E  E   Q.   E E E
||----------|-----------|----------------|--------------||
||o---------|-----------|----------------|-------------o||
||----------|-----------|--9-----9--9--9-|-6----6-6-6---||
||--2-------|-----------|-10----10-10-10-|-7----7-7-7---||
||o-2---5-9-|-7-----7-9-|-10----10-10-10-|-7----7-7-7--o||
||--0-------|-----7-----|--8-----8--8--8-|-5----5-5-5---||


  Q   Q   Q     Q   Q   Q      Q   Q   Q     Q   Q   Q
|-------------|-------------|--------------|--------------|
|-------------|-------------|--------------|--------------|
|-4---4---4---|-4---4---4---|--2---2---2---|-3---3---3----|
|-5---5---5---|-5---5---5---|--4---4---4---|-4---4---4----|
|-5---5---5---|-5---5---5---|--5---5---5---|-4---4---4----|
|-3---3---3---|-3---3---3---|--2---2---2---|-2---2---2----|
|
| Gtr III
| E E E E E E   E E E E E E    E E E E E E   E E E E E E
|-------------|-------------|--------------|--------------|
|-8-7---8-7---|-8-7---8-7---|-10-8-7-8-7---|-8-7---8------|
|-----7-----7-|-----7-----7-|------------7-|-----7---7-9--|
|-------------|-------------|--------------|--------------|
|-------------|-------------|--------------|--------------|
|-------------|-------------|--------------|--------------|


    H    E E   Q.   E E E    Q.    E  E  E   Q.   E E E
||-----------|------------|----------------|-------------||
||o----------|------------|----------------|------------o||
||-----------|------------|--9-----9--9--9-|-6----6-6-6--||
||--2--------|------------|-10----10-10-10-|-7----7-7-7--||
||o-2----5-9-|-7------7-9-|-10----10-10-10-|-7----7-7-7-o||
||--0--------|------7-----|--8-----8--8--8-|-5----5-5-5--||


  Q   Q   Q     Q   Q   Q      Q   Q   Q     Q   Q   Q
|-------------|-------------|--------------|--------------|
|-------------|-------------|--------------|--------------|
|-4---4---4---|-4---4---4---|--2---2---2---|-3---3---3----|
|-5---5---5---|-5---5---5---|--4---4---4---|-4---4---4----|
|-5---5---5---|-5---5---5---|--5---5---5---|-4---4---4----|
|-3---3---3---|-3---3---3---|--2---2---2---|-2---2---2----|
|
| E E E E E E   E E E E E E    E E E E E E   E E E E E E
|-------------|-------------|--------------|--------------|
|-8-7---8-7---|-8-7---8-7---|-10-8-7-8-7---|-8-7---8------|
|-----7-----7-|-----7-----7-|------------7-|-----7---7-9--|
|-------------|-------------|--------------|--------------|
|-------------|-------------|--------------|--------------|
|-------------|-------------|--------------|--------------|


  H    E  E   Q.   E E E    Q.        E  E  E     Q.   E E E
|-----------|------------|--------------------|---------------|
|-----------|------------|--------------------|---------------|
|-----------|------------|--9---------9--9--9-|---6----6-6-6--|
|-2---------|------------|-10--------10-10-10-|---7----7-7-7--|
|-2----5--9-|-7------7-9-|-10--------10-10-10-|---7----7-7-7--|
|-0---------|------7-----|--8---------8--8--8-|---5----5-5-5--|
|
| H    E  E   Q.   E E E    E   E  E  E  E  E     Q.   E E E
|-----------|------------|--------------------|---------------|
|-----------|------------|--------------------|---------------|
|-----------|------------|-----------12-------|---------------|
|------7-11-|-9------5-7-|--9--12-14----------|-/10----9-7-9--|
|-----------|------7-----|--------------10-12-|---------------|
|-----------|------------|--------------------|---------------|



Duration Legend
---------------
W - whole; H - half; Q - quarter; E - 8th; S - 16th; T - 32nd; X - 64th; a - acciaccatura
+ - note tied to previous; . - note dotted; .. - note double dotted
Uncapitalized letters represent notes that are staccato (1/2 duration)
Irregular groupings are notated above the duration line
Duration letters will always appear directly above the note/fret number it represents the
duration for.  Duration letters with no fret number below them represent rests.  Multi-
bar rests are notated in the form Wxn, where n is the number of bars to rest for.  Low
melody durations appear below the staff

Tablature Legend
----------------
 h   - hammer-on
 p   - pull-off
 b   - bend
 pb  - pre-bend
 r   - bend release (if no number after the r, then release immediately)
 /\  - slide into or out of (from/to "nowhere")
 s   - legato slide
 S   - shift slide
 - natural harmonic
[n]  - artificial harmonic
n(n) - tapped harmonic
 ~   - vibrato
 tr  - trill
 T   - tap
 TP  - trem. picking
 PM  - palm muting
\n/  - tremolo bar dip; n = amount to dip
 \n  - tremolo bar down
 n/  - tremolo bar up
/n\  - tremolo bar inverted dip
 =   - hold bend; also acts as connecting device for hammers/pulls
 <> - volume swell (louder/softer)
 x   - on rhythm slash represents muted slash
 o   - on rhythm slash represents single note slash
Tap to rate this tab
 
# A B C D E F G H I J K L M N O P Q R S T U V W X Y Z