Song name
# A B C D E F G H I J K L M N O P Q R S T U V W X Y Z

Between The Buried And Me - Autodidact tab

Help us improve GuitareTab! Take a short survey!
BTBAM - Alaska - Autodidact
Tabbed by Dwight James of Laviathyn
Myspace.com/laviathyn909

Standard tuning 1-1/2 steps down (C#)

This is a badass intro... they play it thru the first segment also... I'm pretty sure 
notes are correct but you'll have to find the rythym for yourself cuz I don't want to sit 
forever... haha... enjoy...

0:01
1|---------------------------------|
2|---------------------------------|
3|---------------------------------|
4|---------------------------------|
5|---------------------------------|
6|-0-3-7-3-7-3-0-6-3-0-6-3-0-3-----|

0:04
1|-------------------------------------|
2|-------------------------------------|
3|-------------------------------------|
4|-2--5---1---2h5p2h5------------------|
5|--------------------3h6p3h6----------|
6|--00--00--0--------------------------|

0:05
1|---------------------------------|
2|---------------------------------|
3|---------------------------------|
4|-------------------------1-4-----|
5|--------3-------3----------------|
6|-0-2-3---0-2-3---0-2-3-----------|

Repeat that part three times... the song is based on that riff so you can figure out the rest...

BTBAM is awesome...I've got more accurate tabs on the way...
Related for Autodidact tab