Song name
# A B C D E F G H I J K L M N O P Q R S T U V W X Y Z

Between The Buried And Me - Ants Of The Sky tab

Help us improve GuitareTab! Take a short survey!
song is in c# tuning a friend showed me how to play this and told me it wasn't on 
so i tabbed it out for those who don't have guitar pro hope u enjoy!


|------------------14---------------------------||
|---------------15----11s12---------------------||
|---15s14-12-14------------15s14-12--12h14p12---||
|-14-------------------------------14--------14-||
|-----------------------------------------------||
|-----------------------------------------------||


|-----------------------------------------||
|-------8-10-10b-7h8p7-----8--------------||
|---7-9---------------7-7h9---------------||
|-s9-------------------9----7h9-7-5-------||
|-----------------------------------------||
|-----------------------------------------||


|-----------------------------------------||
|-----------------------------------------||
|--7-9-10-9-7-9-10-----------------s5-----||
|s9---------------8p7---------------------||
|--------------------10-8-10p8------------||
|-----------------------------10----------||


|-----------------------------------------||
|-----------------------------------------||
|--7-9-10-9-7-9-9s12p11p10p9--------------||
|s9---------------------------------------||
|-----------------------------------------||
|-----------------------------------------||


|--------------------------------------------------------------||
|---------14---------------14-15-14--14-15-17-17b--------------||
|-14-12-----14-12--12s14-14--------14--------------------------||
|------14--------14--------------------------------------------||
|--------------------------------------------------------------||
|--------------------------------------------------------------||

|-16b-14-12-12h14-------------------------||
|----------------12h14-12s10-10-----------||
|-----------------------------------------||
|-----------------------------------------||
|-----------------------------------------||
|-----------------------------------------||

|--------------------------------------------||
|----10-9-10-12-10-9-------------------------||
|--9-11-9-11-13-11-9--9-7-6-6----------------||
|11------------------11-9-7-7----------------||
|--------------------------------------------||
|--------------------------------------------||


|-----------------------------------------||
|--------------7-9-10------------5-7-10---||
|---6-7-6-6-7-9------9p7---4-5-7----------||
|--7-----7--------------5h7---------------||
|-9---------------------------------------||
|-----------------------------------------||


|-----------------------------20p19p17--18s19---||
|-12-12s14-14p12--12h14-14s17---------20--------||
|---------------14------------------------------||
|-----------------------------------------------||
|-----------------------------------------------||
|-----------------------------------------------||


|-17------------------------------------------------------------||
|---20-19-17--17-19-20-19-17---------20-19-18-17----------------||
|-----------20--------------20-17-16-------------20-19-18-17-16-||
|---------------------------------------------------------------||
|---------------------------------------------------------------||
|---------------------------------------------------------------||
Related for Ants Of The Sky tab