Guitaretab - guitar tabs
Song name
# A B C D E F G H I J K L M N O P Q R S T U V W X Y Z

Betzefer - Downlow tab

*|------------------------------|*
*|ok that's my 4th tab for now..|*
*|hope u will like it.          |*
*|------------------------------|*
Tuning: CGCFAd
Tempo:90

Note Lengths (written below the measures):
w-whole not
h-half note
q-quarter note
e-eight note
s-sixteenth note
t-thirty-second note

h - hammer on
p - pull off
b - bend 
r - release bend
x - muffled string
/ - slide up
\ - slide down

                  BETZEFER - DOWNLOW - GUITAR
                  ---------------------------
|-------------------------  |-----------------------------------||
|-------------------------  |-----------------------------------||
|-------------------------X3|-----------------------------------||
|-------------------------  |-----------------------------------||
|-------------------------  |-----------------------------------||
|0-2-0-0-2-0-0-6-6-6-0-2-0  |0-2-0-0-2-0-13-13-13-13-13-13-13-13||
 e s s e s s e s s s s s s   e s s e s s s  s  s  s  s  s  s  s ||

|-------------------------  |-----------------------------------||
|-------------------------  |-----------------------------------||
|-------------------------X3|-----------------------------------||
|-------------------------  |-----------------------------------||
|0-2-0-0-2-0-0-6-6-6-0-2-0  |0-2-0-0-2-0-13-13-13-13-13-13-13-13||
|0-2-0-0-2-0-0-6-6-6-0-2-0  |0-2-0-0-2-0-13-13-13-13-13-13-13-13||
 e s s e s s e s s s s s s   e s s e s s s  s  s  s  s  s  s  s ||

|-------------------------------||  
|-------------------------------||
|-------------------------------||
|----------------7-7-7-7-7-7-7-7||
|3\2-----3-2-----5-5-5-5-5-5-5-5||
|1\0-0-0-1-0-0-0----------------||
 s s s s s s s s s s s s s s s s 

|-------------------------  |-------------------------||
|-------------------------  |-------------------------||
|-------------------------X3|-------------------------||
|-------------------------  |-------------------------||
|-------------------------  |-------------------------||
|0-2-0-0-2-0-1-1-0-1-1-1-0  |0-2-0-0-2-0-1-1-0-1-1-1-1||
 e s s e s s e s s s s s s   e s s e s s e s s s s s s

chorus:             
|----------------|-------------------  |--------------------||
|----------------|-------------------  |--------------------||
|----------------|-------------------X2|--------------------||
|----------------|-------------------  |--------------------||
|0-0-9--9--9--9--|0-0-9--9--9--------  |0-0-9-------0-0-9---||
|0-0--10-10-10-10|0-0--10-10-10-0-0-0  |0-0--10-0-0-0-0--10-||
                                                           S
ok the lengths is like that: 9,0 - is sixteenth note.      
                              10 - is eight note.

|----------------------------|---------------||
|----------------------------|---------------||
|----------------------------|---------------||   the whole 2 part
|---------------4/7-7-7-7-4--|----4-------4--||          X2
|---------------2/5-5-5-5-2-3|--3-2-3-2-2-2-1||
|-0-0-0-3-0-0-0-------------3|--3---3-2-2---1||
  e s s s s s s s s s s s e s E e s e e e e s.

|-----------------------------|---------------------------||
|-----------------------------|---------------------------|| this part to
|-----------------------------|---------------------------||      X2
|---------------4/7-7-7-7-4-10|--10-10-10-7---------------||          
|---------------2/5-5-5-5-2-8-|--8--8--8--5--6-6-6-5-6-5-6||
|-0-0-0-3-0-0-0---------------|--------------6-6-6-5-6-5-6||
  e s s s s s s s s s s s e s  E e  e  s  e  s s s s s s s 

|-------------------------|-------------------------------||
|-------------------------|-------------------------------||
|-------------------------|-------------------------------||
|-------------------------|-------------------------------||
|0-2-0-0-2-0-0-6-6-6-0-2-0|-------------------------------||
|0-2-0-0-2-0-0-6-6-6-0-2-0|0-0-0-0-0-0-0-0-0-0-0-0-----13\||  
 e s s e s s e s s s s s s t t s t t s t t s t t s Q E e 
[ Tab from: http://www.guitaretab.com/b/betzefer/64636.html ]
|-------------------------  |-----------------------------------||
|-------------------------  |-----------------------------------||
|-------------------------X3|-----------------------------------||
|-------------------------  |-----------------------------------||
|-------------------------  |-----------------------------------||
|0-2-0-0-2-0-0-6-6-6-0-2-0  |0-2-0-0-2-0-13-13-13-13-13-13-13-13||
 e s s e s s e s s s s s s   e s s e s s s  s  s  s  s  s  s  s ||

|-------------------------|-------------------------  ||
|-------------------------|-------------------------  ||
|-------------------------|-------------------------x3||
|-------------------------|-------------------------  ||
|-------------------------|-------------------------  ||
|0-2-0-0-2-0-1-1-0-1-1-1-0|0-2-0-0-2-0-1-1-0-1-1-1-1  ||
 e s s e s s e s s s s s s e s s e s s e s s s s s s

|----------------|-------------------  |--------------------||
|----------------|-------------------  |--------------------|| the whole 
|----------------|-------------------X2|--------------------||  part is
|----------------|-------------------  |--------------------||     X2
|0-0-9--9--9--9--|0-0-9--9--9--------  |0-0-9-------0-0-9---|| the lengths
|0-0--10-10-10-10|0-0--10-10-10-0-0-0  |0-0--10-0-0-0-0--10-|| like before
                                                           S
|----------------------------|---------------||
|----------------------------|---------------||
|----------------------------|---------------||   the whole 2 part
|---------------4/7-7-7-7-4--|----4-------4--||          X2
|---------------2/5-5-5-5-2-3|--3-2-3-2-2-2-1||
|-0-0-0-3-0-0-0-------------3|--3---3-2-2---1||
  e s s s s s s s s s s s e s E e s e e e e s.

|-----------------------------|---------------------------||
|-----------------------------|---------------------------|| this part to
|-----------------------------|---------------------------||      X2
|---------------4/7-7-7-7-4-10|--10-10-10-7---------------||          
|---------------2/5-5-5-5-2-8-|--8--8--8--5--6-6-6-5-6-5-6||
|-0-0-0-3-0-0-0---------------|--------------6-6-6-5-6-5-6||
  e s s s s s s s s s s s e s  E e  e  s  e  s s s s s s s 

|-----------------------------------------------      
|-----------------------------------------------   
|-----------------------------------------------x3   
|-----------------------------------------------  
|-----------------------------------------------  
|0-0-0-0-0-0-0-0-0-0-0-0-0-0-0-0-0-0-0-0-0-0-0-0  
 t t s t t s t t s t t s t t s t t s t t s t t s 

|---------------------------------------||
|---------------------------------------||
|---------------------------------------|| now repeat the note from above
|---------------------------------------||       and this part again
|---------------------------------------||
|0-0-0-0-0-0-0-0-0-0-0-0-2-1-2-1-3-2-3-2||
 t t s t t s t t s t t s s s s s s s s s

|--------------------------------------------|     
|7b-7b-7b-7b-7b-7b-7b-7b-7b-7b-7b-7b-7b-7b-7b|     
|9b-9b-9b-9b-9b-9b-9b-9b-9b-9b-9b-9b-9b-9b-9b| 
|--------------------------------------------|      
|--------------------------------------------|   
|--------------------------------------------|
 e  s  s  s  s  s  s  s  s  s  s  s  s  s  s
|-----------------------------------------------   ||  after you finish    
|7b-7b-7b-7b-7b-7b-7b-7b-7b-7b-7b-7b-7b-7b-7b-7b   ||  playing this part
|9b-9b-9b-9b-9b-9b-9b-9b-9b-9b-9b-9b-9b-9b-9b-9b X3||  you need to play
|-----------------------------------------------   ||     it 12 more
|-----------------------------------------------   ||   times cause it
|-----------------------------------------------   ||sounds at the backround
 s  s  s  s  s  s  s  s  s  s  s  s  s  s  s  s  

and then play this again:
|-----------------------------------------------      
|-----------------------------------------------   
|-----------------------------------------------   
|----------------------------------------------- X3  
|-----------------------------------------------  
|0-0-0-0-0-0-0-0-0-0-0-0-0-0-0-0-0-0-0-0-0-0-0-0  
 t t s t t s t t s t t s t t s t t s t t s t t s 
|---------------------------------------||
|---------------------------------------||
|---------------------------------------|| now repeat the note from above
|---------------------------------------||      and this part again    
|---------------------------------------||  
|0-0-0-0-0-0-0-0-0-0-0-0-2-1-2-1-3-2-3-2||      
 t t s t t s t t s t t s s s s s s s s s

the part of the
|--
|9b
|7b

still keep playing for 2 more times (it's include in the 12 times)..

and that's it..hope u like it..
cya
bodem! 
                   


 
                           






 

Related for Downlow tab
Advertisement will be closed in 10 seconds