Guitaretab - guitar tabs
Song name
# A B C D E F G H I J K L M N O P Q R S T U V W X Y Z

Beulah - Burned By The Sun tab

Fun wee track

http://www.beulahmania.com/


Intro
e|------------------------|
B|--9--9--9--9--9--9---\--|
G|---9--9--9--9--9--9--\--|
D|----9--9--9--9--9--9-\--|
A|------------------------|
E|------------------------|


VERSE:
B
High above the bordertown
                     E
I can see the golden ground
                    A
If I wasn't looking down
B                            E
I might have lost you in the miles

                       B
Ocean blue and foaming white
                        E
surround the body of my flight
                  A
as I flew out of sight
B                       E
You were turning in the stiles

CHORUS:
                   F#
and I know what it means to you
                   A        E
and I know what it means to me
                  F#
and I know how it feels to be
A             E           F# 
burned by the sun, the sun
          A
I love the sun
[ Tab from: http://www.guitaretab.com/b/beulah/65815.html ]
   B                     E
e|---------------------------------------------------------------4/5-5/7--|
B|-------2-5-4----5-4-2---------------------------------4-4-4-5--5/7-7/9--|
G|----1-4--------------4-1-4-1------4-1-------------2-4--4-4--------------|
D|-2-4---------------------------------4-2-4-2-4---4-4--------------------|
A|------------------------------------------------------------------------|
E|------------------------------------------------------------------------|



VERSE:
Now I'm sleeping on the sand
of an unfamiliar land
And I'm dreaming up a plan
to get you on the breeze

And I'm staring at the speck 
Of the map laid on the deck 
It's time to make a trek 
On forgiving seas 

CHORUS
and I know what it means to you
and I know what it means to me
and I know how it feels to be
burned by the sun, the sun

I love the sun

and I know what it means to you
and I know what it means to me
and I know we all want to be
Burned by the sun 

Outro (as intro)
Related for Burned By The Sun tab