Song name
# A B C D E F G H I J K L M N O P Q R S T U V W X Y Z

Beware Of Darkness - Howl tab

I made this from watching various live performances and a video tutorial. The solo is 
credited to verhoevc and is from his/her tab.


Intro/Main Riff:
------0-------------------------------0-----------------\12--12-------|
------0-------------------------------0------------------x------11----|
------x-------------------------------x------------------x------------|
------7b9r7p5-------------------------7b9r7p5-----------\12-----------|
---------------7p5-----7/----------------------7p5--------------------|
--0-----------------0------3------0-----------------0-----------------|

------0---------------------------------------------|
------0---------------------------------------------|
------x---------------------------------------------|
------7b9r7p5---------------------------------------|
---------------7p5-----7/-------------5---5-6-------|
--0-----------------0------3----3/7-7---7-----------|


Verse:
------------------------------------------|
---------------------------3-3---3--------|
---------------------------2-2-2-2-2------|
---------------------------0-0-2-0-2------|
------5h7-7-5-5-5-5h7----------0---0------|
--0-0-0---0-0-0-0-0-0----------------3----|


Pre-Chorus:
------------------------------------------------------|
----------------------------------14--14/--/12--------|
-----2b----------------------/12--14--14/--/12--------|
----------4-4-4-4-4-4-4-4-----------------------14----|
----------2-2-2-2-2-2-2-2-----------------------------|
--3---------------------------------------------------|
          . . . . . . . .

---------------------------------------|
----------14---------------------------|
-----/12--14--14-12-14p12--------------|
---------------------------14p12-14----|
---------------------------------------|
---------------------------------------|


Chorus:
-------------------------------------------------------------|
-------------------------------------------------------------|
-------------------------------------------------------------|
-------------------------------------------------------------|
-----7-----7-----7-----7p5-7-----7------5---9----------------|
--0-----0-----0-----0---------0-----0---3---7----------------|


Bridge: (Not too sure about this part)
-------------------------------------------------|
-------------------------------------------------|
--6-6-6-6-6-6-6-6-8-8-8-8-9-9-9-9----------------|
--7-7-7-7-7-7-7-7-7-7-7-7-7-7-7-7----------------|
--0-0-0-0-0-0-0-0-0-0-0-0-0-0-0-0----------------|
-------------------------------------------------|
  . . . . . . . . . . . . . . . .


Solo: (This is not my work. All credit for this portion of the song goes to verhoevc and 
is from the tab submited by him/her.)
-----------------------------------------------------------15----|
--10b12-10-8-10-b12r10-8-------------/8--/10--/11--/12-----------|
---------------------------7/6-----------------------------------|
-----------------------------------------------------------------|
-----------------------------------------------------------------|
-----------------------------------------------------------------|


I couldn't figure out the rest of the solo. Any help on it would be awesome.
Tap to rate this tab
# A B C D E F G H I J K L M N O P Q R S T U V W X Y Z