Song name
# A B C D E F G H I J K L M N O P Q R S T U V W X Y Z

Beware Of Darkness - All Who Remain tab

5. All Who Remain
Beware of Darkness
Orthodox

Tuning: Drop D

Main riff
e|----------------------------------------|
B|----------------------------------------|
G|----------------------------------------|
D|----4----6----7----9----11----7----4----|
A|---(0)--(2)--(4)--(7)--(7)---(4)--(0)---|
D|----0----2----4----6----7-----4----0----|

Fills
e|----------------|-------------|
B|---5\3----------|---------2---|
G|-------2--------|-------------|
D|---------4brb---|---2/4\2-----|
A|----------------|-------------|
D|----------------|-------------|

Solo
e|---0---0------0--------------17--------17--17-------------------------|
B|---2/5---5/10---10/14-14b-------17b-14-14b-----------------14---------|
G|--------------------------14---------------14--------14-16------------|
D|-----------------------------------------------14h16----------14h16---|
A|----------------------------------------------------------------------|
D|----------------------------------------------------------------------|

e|---0---0------0--------------17--------17--17-------------------------|
B|---2/5---5/10---10/14-14b-------17b-14-14b-----------------14-15------|
G|--------------------------14---------------14--------14-16------------|
D|-----------------------------------------------14h16------------------|
A|----------------------------------------------------------------------|
D|----------------------------------------------------------------------|

Interlude
e|---------------------------------------------------------------|
B|---------------------------------------------------------------|
G|---------------------------------------------------------------|
D|-------------------------------------------7~777777777777777---|
A|-------------------------------------------7~777777777777777---|
D|---0-2-4-6---0-2-4-6---0-2-4-6---0-2-4-6---7~777777777777777---|

Main riff
e|----------------------------------------|
B|----------------------------------------|
G|----------------------------------------|
D|----4----6----7----9----11----7----4----|
A|---(0)--(2)--(4)--(7)--(7)---(4)--(0)---|
D|----0----2----4----6----7-----4----0----|
Tap to rate this tab
# A B C D E F G H I J K L M N O P Q R S T U V W X Y Z