Song name
# A B C D E F G H I J K L M N O P Q R S T U V W X Y Z

Beyonce Knowles - Beautiful Liar tab

Artist: Beyonce & Shakira
Song: Beautiful Liar


e|---3--3-----------------------3--3--------------------|
B|--------3h4p3----3--4--4--3--------3h4p3----3--4--3---|
G|---------------5--------------------------5-----------|
D|------------------------------------------------------|
A|------------------------------------------------------|
E|------------------------------------------------------|


e|------------------------|
B|------------------------|
G|------------------------|
D|----5--6--6---5-3--5----|
A|----5--6--6---5-3--5----|
E|------------------------|



Bridge: rapidly strum these chords (better without plectrum)

Fm  133111

Cm  x35543





- - - - - - - -
Freemasons Edit
- - - - - - - -

This is the acoustic guitar part near the end

e|-----------------------------------------------|
B|--3-3-3-3-33-3-3-3-3-33-4-4-4-4-44-6-6-4-4-44--|
G|--4-4-4-4-44-4-4-4-4-44-5-5-5-5-55-5-5-5-5-55--|
D|--5-5-5-5-55-5-5-5-5-55-5-5-5-5-55-5-5-5-5-55--|
A|--5-5-5-5-55-5-5-5-5-55-3-3-3-3-33-3-3-3-3-33--|
E|--3-3-3-3-33-3-3-3-3-33------------------------|

    G                     Cm         Csus4 Cm

Put a Capo on 3rd to make it easier




Tabbed by NintEndO
Tap to rate this tab
 
# A B C D E F G H I J K L M N O P Q R S T U V W X Y Z