Song name
# A B C D E F G H I J K L M N O P Q R S T U V W X Y Z

Beyonce Knowles - Halo tab

-------------------------------------------------------------------------------
			     halo - Beyonce
-------------------------------------------------------------------------------
hey this is kinda my first time tabbing online so email me if you think its wrong. 

Tabbed by:Justin.L
Email: justin-lal@hotmail.com

Tuning:standard

intro

e|-9-0-5-0--9-0-5-0--9-0-5-0--9-0-7-9--10---7----10---7----10---7------------|
B|----------------------------------------7---7-----7---7-----7---7----------|
G|---------------------------------------------------------------------------|
D|---------------------------------------------------------------------------|
A|---------------------------------------------------------------------------|
E|---------------------------------------------------------------------------|

e|-7-h9p7-5-4--5---2----5---2----5---2----5-7-5-4--2---2---2---2---5---2-----|
B|---------------2---2----2---2----2---2-------------3---3---3---3---3---3---|
G|---------------------------------------------------------------------------|
D|---------------------------------------------------------------------------|
A|---------------------------------------------------------------------------|
E|---------------------------------------------------------------------------|

e|-5-4-2-0-------------------------------------------------------------------|
B|---------------------------------------------------------------------------|
G|---------------------------------------------------------------------------|
D|---------------------------------------------------------------------------|
A|---------------------------------------------------------------------------|
E|---------------------------------------------------------------------------|

after that the chords are:

A, Bm, f#m, D


| /  slide up
| \  slide down
| h  hammer-on
| p  pull-off
| ~  vibrato
| +  harmonic
| x  Mute note
===============================================================================
Tap to rate this tab
 
# A B C D E F G H I J K L M N O P Q R S T U V W X Y Z