Song name
# A B C D E F G H I J K L M N O P Q R S T U V W X Y Z

Beyonce Knowles - Broken Hearted Girl tab

Broken Hearted Girl
tabbed by apey

this is my first tab, some parts may be off. if so, let me know what you think. my
email is aprilsav@hotmail.com

Intro and Verse 1

e-1-1-1--1-0---------------------------------------|
B------------3-1-3-3-3---3-1-----------------------|
G-----------------------------5-3-5-5--------------|
D-------0--------------0---------------3-5-5-5-0---|
A--------------------------------------------------|
E--------------------------------------------------|

You're everything i wished you never were...

Hook

e---------------------------------------------------------------------------|
B---------------------------------------------------------------------------|
G-3-2---3-2---3-2---3-----2-----2-----2-----------3-2----3-2---3-2----3-----|
D-----3-----3-----3---3-5---3-2---3-2---3-5-5-7-8-----3------3------3---3-8-|
A---------------------------------------------------------------------------|
E---------------------------------------------------------------------------|

e-----------------------|
B-----------------------|
G-----------------------|
D-8-8-6-6-6-8-8-9-11----|
A-----------------------|
E-----------------------|

And yes there are times when i hate you...

Chorus

e-1-1-1--1-0---------------------------------------|
B------------3-1-3-3-3---3-1-----------------------|
G-----------------------------5-3-5-5--------------|
D-------0--------------0---------------3-5-5-5-0---|
A--------------------------------------------------|
E--------------------------------------------------|

I don't wanna be without you baby...

Intro

Verse 2 (same as intro and verse 1)

There's something that i feel i need to say...

Hook

Chorus

Bridge (Not sure if this part is accurate)

e---------------------------------------------------------------------------|
B---------------------------------------------------------------------------|
G---------------------------------------------------------------------------|
D-7-7-7-9-7-6-6-6-6-6-7-7-7-9-7-6-6-6-6-6---9-9-9-9-------4-6-7-6-4-2-4-----|
A-----------------------------------------7---------7-7-7---------------2---|
E---------------------------------------------------------------------------|

e--------------|
B--------------|
G--------------|
D-4h2--6h4-----|
A----2---------|
E--------------|

Im living in a place I thought i'd never be...

Intro

Chorus
Tap to rate this tab
 
# A B C D E F G H I J K L M N O P Q R S T U V W X Y Z