Song name
# A B C D E F G H I J K L M N O P Q R S T U V W X Y Z

Beyonce Knowles - Love On Top tab

Refrains + couplets

E------------0---|
B----------1-----|
G--------0-------|
D------2---------|
A----3-----------|
E--x-------------|

E------------X---|
B----------5-----|
G--------5-------|
D------5---------|
A----x-----------|
E--5-------------|

E------------1---|
B----------1-----|
G--------2-------|
D------3---------|
A----3-----------|
E--1-------------|

E------------0---|
B----------1-----|
G--------2-------|
D------2---------|
A----x-----------|
E--x-------------|

E------------x---|
B----------4-----|
G--------3-------|
D------2---------|
A----3-----------|
E--x-------------|

E------------x---|
B----------3-----|
G--------3-------|
D------2---------|
A----3-----------|
E--x-------------|

E------------0---|
B----------0-----|
G--------0-------|
D------2---------|
A----3-----------|
E--x-------------|

E------------X---|
B----------5-----|
G--------5-------|
D------5---------|
A----x-----------|
E--5-------------|

E------------1---|
B----------1-----|
G--------2-------|
D------3---------|
A----3-----------|
E--1-------------|

E------------0---|
B----------1-----|
G--------2-------|
D------2---------|
A----x-----------|
E--x-------------|

E------------x---|
B----------4-----|
G--------3-------|
D------2---------|
A----3-----------|
E--x-------------|

E------------x---|
B----------3-----|
G--------3-------|
D------2---------|
A----3-----------|
E--x-------------|

Pré-refrain


E------------0---|
B----------1-----|
G--------2-------|
D------2---------|
A----x-----------|
E--x-------------|

E------------1---|
B----------1-----|
G--------2-------|
D------3---------|
A----3-----------|
E--1-------------|

E------------3---|
B----------3-----|
G--------4-------|
D------5---------|
A----5-----------|
E--3-------------|

E------------0---|
B----------5-----|
G--------5-------|
D------4---------|
A----5-----------|
E--x-------------|

E------------0---|
B----------1-----|
G--------2-------|
D------2---------|
A----x-----------|
E--x-------------|

E------------1---|
B----------1-----|
G--------2-------|
D------3---------|
A----3-----------|
E--1-------------|

E------------3---|
B----------3-----|
G--------4-------|
D------5---------|
A----5-----------|
E--3-------------|
Tap to rate this tab
 
# A B C D E F G H I J K L M N O P Q R S T U V W X Y Z