Song name
# A B C D E F G H I J K L M N O P Q R S T U V W X Y Z

Beyonce Knowles - Love On Top chords

Highlighted       Show chord diagrams
-------------------------------------------------------------------------------
                             Love On Top - Beyonce Knowles
-------------------------------------------------------------------------------

This arrangement is designed for one guitar - the bass line is worked into the 
bottom two strings, so if you're playing this with a group it'd probably make more 
sense to play simpler chords. 

Song structure:
Intro
Verse 1
Prechorus
Chorus (same as Intro)
Post-chorus (same as Intro)
Verse 2
Prechorus
Chorus
Post-chorus (sams as Intro)
Chorus (one key up)
Chorus (two keys up)
Chorus (three keys up)
Chorus (four keys up)

Intro: 

Beats: 4     4      4     4     4     4      4     2    1   1
     Cmaj7 Am/F#  Am/F  F7/G  Cmaj7 Am/F#  Am/F  F7/G  G#  G7 
e|-----3-----0------0-----0-----3-----0------0-----0----x---x----------------|
B|-----5-----1------1-----1-----5-----1------1-----1----4---3----------------|
G|-----4-----2------2-----2-----4-----2------2-----2----5---4----------------|
D|-----5-----x------x----(3)----5-----x------x----(3)---6---3----------------|
A|-----3-----x------x-----x-----3-----x------x-----x----x---x----------------|
E|-----x-----2------1-----3-----x-----2------1-----3----4---3----------------|
             T      T     T           T      T     T    T   T 

Verse: Almost the same as the intro - only the turnarounds at the end of each 4-
bar phrase are different.

Beats: 4     4      4   2   2    4     4     4    4
     Cmaj7 Am/F#  Am/F  G#  G  Cmaj7 Am/F#  Am/F  G7
e|-----3-----0------0---x---x----3-----0-----0----3--------------------------|
B|-----5-----1------1---4---3----5-----1-----1----6--------------------------|
G|-----4-----2------2---5---4----4-----2-----2----4--------------------------|
D|-----5-----x------x---6---5----5-----x-----x----5--------------------------|
A|-----3-----x------x---x---x----3-----x-----x----x--------------------------|
E|-----x-----2------1---4---3----x-----2-----1----3--------------------------|
             T      T   T   T          T     T

Prechorus:

Beats: 4   4   4    4   4   4   4 "put me first" 2
      Dm7 GM9 G6/E  A7 Dm7 GM9 G6/E              G7
e|-----5---5--(0)---x---5---5--(0)---------------3---------------------------|
B|-----6---3---3----5---6---3---3----------------3---------------------------|
G|-----5---4---4----6---5---4---4----5-7-7/9-----4---------------------------|
D|-----7---5---5----5---7---5---5----------------3---------------------------|
A|-----5---x---x----0---5---x---x----3-5-5/7-----x---------------------------|
E|-----x---3---0----x---x---3---0----------------3---------------------------|
           T                T                    T

Chorus: Exactly the same as the intro, just hit the F7/G once on "Stop", and then 
move on to G# and G7 on beats 3 and 4, respectively.

Key-shifted choruses: this just moves up the fretboard one fret each time, but 
here's the extra ones here to make things easier. Also, on the fourth chord of 
each chorus, the top string is haaard to hit unless you have gigantic hands, 

Chorus (up one key):
    C#maj7 A#m/G A#m/F# F#7/G# C#maj7 A#m/G A#m/F# F#7/G# A  G#7 
e|-----4-----1------1----(1)------4-----1------1-----1----x---x--------------|
B|-----6-----2------2-----2-------6-----2------2-----2----5---4--------------|
G|-----5-----3------3-----3-------5-----3------3-----3----6---5--------------|
D|-----6-----x------x-----4-------6-----x------x----(4)---7---4--------------|
A|-----4-----x------x-----x-------4-----x------x-----x----x---x--------------|
E|-----x-----3------2-----4-------x-----3------2-----4----5---4--------------|
             T      T     T             T      T     T    T   T 

Chorus (up two keys):
     Dmaj7 Bm/G#  Bm/G  G7/A  Dmaj7 Bm/G#  Bm/G  G7/A  A#  A7 
e|-----5-----2------2----(2)----5-----2------2-----2----x---x----------------|
B|-----7-----3------3-----3-----7-----3------3-----3----6---5----------------|
G|-----6-----4------4-----4-----6-----4------4-----4----7---6----------------|
D|-----7-----x------x-----5-----7-----x------x----(5)---8---5----------------|
A|-----5-----x------x-----x-----5-----x------x-----x----x---x----------------|
E|-----x-----4------3-----5-----x-----4------3-----5----6---5----------------|
             T      T     T           T      T     T    T   T 

Chorus (up three keys):
     Fmaj7 C#m/B C#m/A# A#7/C  Fmaj7 C#m/B C#m/A# A#7/C  A  C7 
e|-----6-----3------3----(3)-----6-----3------3-----3----x---x---------------|
B|-----8-----4------4-----4------8-----4------4-----4----7---6---------------|
G|-----7-----5------5-----5------7-----5------5-----5----8---7---------------|
D|-----8-----x------x-----6------8-----x------x----(6)---9---6---------------|
A|-----6-----x------x-----x------6-----x------x-----x----x---x---------------|
E|-----x-----5------4-----6------x-----5------4-----6----7---6---------------|
             T      T     T            T      T     T    T   T 

Chorus (up four keys):
     Emaj7 C#m/A# C#m/A  A7/B Emaj7 C#m/A# C#m/A A7/C#  C  B7 
e|-----7-----4------4----(4)----7-----4------4-----4----x---x----------------|
B|-----9-----5------5-----5-----9-----5------5-----5----8---7----------------|
G|-----8-----6------6-----6-----8-----6------6-----6----9---8----------------|
D|-----9-----x------x-----7-----9-----x------x----(7)---10--7----------------|
A|-----7-----x------x-----x-----7-----x------x-----x----x---x----------------|
E|-----x-----6------5-----7-----x-----6------5-----7----8---7----------------|
             T      T     T           T      T     T    T   T 

Enjoy!
Tap to rate this tab
# A B C D E F G H I J K L M N O P Q R S T U V W X Y Z