Song name
# A B C D E F G H I J K L M N O P Q R S T U V W X Y Z

Beyonce Knowles - Irreplaceable tab

Help us improve GuitareTab! Take a short survey!
Artist: Beyonce
Song: Irreplaceable
Tabbed by:Carlos Ramirez
Tuning:Standard with CAPO on the first fret



    A                          E5  Bmadd4                     D6add9
e|--0---------------------------0----0--------------------------0---------|
B|--5---------------------------0----3--------------------------0---------|
G|--6---------------------------9----4--------------------------7---------|
D|--7---------------------------9----4--------------------------7---------|
A|--7---------------------------7----2--------------------------5---------|
E|--5---------------------------0-----------------------------------------|
        to the left to the left         to the left to the left

    A                        E5 
e|--0-------------------------0-------------------------------------------|
B|--5-------------------------0-------------------------------------------|
G|--6-------------------------9-------------------------------------------|
D|--7-------------------------9-------------------------------------------|
A|--7-------------------------7-------------------------------------------|
E|--5-------------------------0-------------------------------------------|
      to the left to the left everything you own in the box to the left

  Bmadd4                           D6add9                E5
e|--0--------------------------------0--------------------0--------------|
B|--3--------------------------------0--------------------0--------------|
G|--4--------------------------------7--------------------9--------------|
D|--4--------------------------------7--------------------9--------------|
A|--2--------------------------------5--------------------7--------------|
E|--------------------------------------------------------0--------------|
    in the closet that's my stuff yes,if I bought it then please don't touch

                      A
e|--------------------0---------------------------------------------------|
B|--------------------5---------------------------------------------------|
G|--------------------6---------------------------------------------------|
D|--------------------7---------------------------------------------------|
A|--------------------7---------------------------------------------------|
E|--------------------5---------------------------------------------------|
  ( don't touch) and keep talking that mess that's fine

   E5
e|-0----------------------------------------------------------------------|
B|-0----------------------------------------------------------------------|
G|-9----------------------------------------------------------------------|
D|-9----------------------------------------------------------------------|
A|-7----------------------------------------------------------------------|
E|-0----------------------------------------------------------------------|
   could you walk and talk at the same time

    Bmadd4
e|----0-------------------------------------------------------------------|
B|----3-------------------------------------------------------------------|
G|----4-------------------------------------------------------------------|
D|----4-------------------------------------------------------------------|
A|----2-------------------------------------------------------------------|
E|------------------------------------------------------------------------|
  and   it's my name that's on that jag

     D6add9                     E5
e|-----0-------------------------0----------------------------------------|
B|-----0-------------------------0----------------------------------------|
G|-----7-------------------------9----------------------------------------|
D|-----7-------------------------9----------------------------------------|
A|-----5-------------------------7----------------------------------------|
E|-------------------------------0----------------------------------------|
    so go move your bags let me call you a cab

  (I)
  Dmaj7add9                            F#m7add4
e|---0-----------------------------------0--------------------------------|
B|---7-----------------------------------0--------------------------------|
G|---6-----------------------------------2--------------------------------|
D|---7-----------------------------------4--------------------------------|
A|---5-----------------------------------4--------------------------------|
E|---------------------------------------2--------------------------------|
   standing in the front yard telling me how I 'm such a fool

            Dmajadd9                Dbm           Bmadd4   E5
e|--------------0--------------------0---------------0------0-------------|
B|--------------7--------------------5---------------3------0-------------|
G|--------------6--------------------6---------------4------9-------------|
D|--------------7--------------------6---------------4------9-------------|
A|--------------5--------------------4---------------2------7-------------|
E|----------------------------------------------------------0-------------|
  talking 'bout how I'll never ever find a man like you you got me twisted


CHORUS:
    A                                 E5
e|--0----------------------------------0----------------------------------|
B|--5----------------------------------0----------------------------------|
G|--6----------------------------------9----------------------------------|
D|--7----------------------------------9----------------------------------|
A|--7----------------------------------7----------------------------------|
E|--5----------------------------------0----------------------------------|
       you must not know 'bout me you must not know 'bout me

            Bmadd4                              D6add9
e|------------0----------------------------------0------------------------|
B|------------3----------------------------------0------------------------|
G|------------4----------------------------------7------------------------|
D|------------4----------------------------------7------------------------|
A|------------2----------------------------------5------------------------|
E|------------------------------------------------------------------------|
I could have another you in a minute matter fact he'll be here in a minute

        A                                 E5
e|------0---------------------------------0-------------------------------|
B|------5---------------------------------0-------------------------------|
G|------6---------------------------------9-------------------------------|
D|------7---------------------------------9-------------------------------|
A|------7---------------------------------7-------------------------------|
E|------5---------------------------------0-------------------------------|
   baby   you must not know 'bout me you must not know 'bout me

            Bmadd4
e|-------------0----------------------------------------------------------|
B|-------------3----------------------------------------------------------|
G|-------------4----------------------------------------------------------|
D|-------------4----------------------------------------------------------|
A|-------------2----------------------------------------------------------|
E|------------------------------------------------------------------------|
   I can have another you by tomorrow

          Dmadd9                                                    A
e|----------0-------------------------------------------------------0-----|
B|----------6-------------------------------------------------------5-----|
G|----------7-------------------------------------------------------6-----|
D|----------7-------------------------------------------------------7-----|
A|----------5-------------------------------------------------------7-----|
E|------------------------------------------------------------------5-----|
  so don't you ever for a second get to thinkin'you're irreplaceable



    A                              E5
e|--0------------------------------0-------------------------------------|
B|--5------------------------------0-------------------------------------|
G|--6------------------------------9-------------------------------------|
D|--7------------------------------9-------------------------------------|
A|--7------------------------------7-------------------------------------|
E|--5------------------------------0-------------------------------------|
     so go ahead and get gone and call up that chick and see if she's home

  Bmadd4                        D6add9
e|-0-----------------------------0----------------------------------------|
B|-3-----------------------------0----------------------------------------|
G|-4-----------------------------7----------------------------------------|
D|-4-----------------------------7----------------------------------------|
A|-2-----------------------------5----------------------------------------|
E|------------------------------------------------------------------------|
  oops I bet that i didn't know what did you think I was putting you out for

    A                         E5                                    Bmadd4
e|--0--------------------------0----------------------------------------0-|
B|--5--------------------------0----------------------------------------3-|
G|--6--------------------------9----------------------------------------4-|
D|--7--------------------------9----------------------------------------4-|
A|--7--------------------------7----------------------------------------2-|
E|--5--------------------------0------------------------------------------|
        because you was untrue rollin around in that car that I bought you

                      D6add9                  E5                    
e|---------------------0-----------------------0--------------------------|
B|---------------------0-----------------------0--------------------------|
G|---------------------7-----------------------9--------------------------|
D|---------------------7-----------------------9--------------------------|
A|---------------------5-----------------------7--------------------------|
E|---------------------------------------------0--------------------------|
   baby drop them keys   hurry up before your taxi leaves


 (I), chorus

             Dmadd9                      E5
e|------------0--------------------------0---------------------------------|
B|------------6--------------------------0---------------------------------|
G|------------7--------------------------9---------------------------------|
D|------------7--------------------------9---------------------------------|
A|------------5--------------------------7---------------------------------|
E|---------------------------------------0---------------------------------|
..so don't you ever for a second get to thinking you're irreplaceable

         Dmaj7add9                     E5
e|----------0--------------------------0----------------------------------|
B|----------7--------------------------0----------------------------------|
G|----------6--------------------------9----------------------------------|
D|----------7--------------------------9----------------------------------|
A|----------5--------------------------7----------------------------------|
E|-------------------------------------0----------------------------------|
 (irreplaceable) so since I'm not your everything

                     A     A/G#              F#ma7dd4
e|-------------------x------x------------------0--------------------------|
B|-------------------2------2------------------0--------------------------|
G|-------------------2------2------------------2--------------------------|
D|-------------------2------2------------------4--------------------------|
A|-------------------0------x------------------4--------------------------|
E|--------------------------4------------------2--------------------------|
  how about I'll be nothing nothing at all to you

        E               B          D6add9
e|------0---------------------------0-------------------------------------|
B|------0---------------4-----------0-------------------------------------|
G|------1---------------4-----------7-------------------------------------|
D|------2---------------4-----------7-------------------------------------|
A|------2---------------2-----------5-------------------------------------|
E|------0-----------------------------------------------------------------|
   baby I won't shed a tear for you I won't lose a wink of sleep

   E5
e|--0---------------------------------------------------------------------|
B|--0---------------------------------------------------------------------|
G|--9---------------------------------------------------------------------|
D|--9---------------------------------------------------------------------|
A|--7---------------------------------------------------------------------|
E|--0---------------------------------------------------------------------|
  'cause the truth of the matter is replacing you is so easy

    A                          E5 Bmadd4                       Dmadd9
e|--0--------------------------0----0----------------------------0--------|
B|--5--------------------------0----3----------------------------6--------|
G|--6--------------------------9----4----------------------------7--------|
D|--7--------------------------9----4----------------------------7--------|
A|--7--------------------------7----2----------------------------5--------|
E|--5--------------------------0------------------------------------------|
       to the left to the left         to the left to the left

       A                         E5
e|-----0-------------------------0----------------------------------------|
B|-----5-------------------------0----------------------------------------|
G|-----6-------------------------9----------------------------------------|
D|-----7-------------------------9----------------------------------------|
A|-----7-------------------------7----------------------------------------|
E|-----5-------------------------0----------------------------------------|
 mmmm    to the left to the left everything you own in the box to the left

 Bmadd4                                  Dmadd9
e|-0--------------------------------------0-------------------------------|
B|-3--------------------------------------6-------------------------------|
G|-4--------------------------------------7-------------------------------|
D|-4--------------------------------------7-------------------------------|
A|-2--------------------------------------5-------------------------------|
E|------------------------------------------------------------------------|
      to the left to the left  don't you ever for a second get to thinking

                    A
e|------------------0--------|
B|------------------5--------|
G|------------------6--------|
D|------------------7--------|
A|------------------7--------|
E|------------------5--------|
   you're irreplaceable

                                       E5
e|-------------------------------------0----------------------------------|
B|-------------------------------------0----------------------------------|
G|-------------------------------------9----------------------------------|
D|-------------------------------------9----------------------------------|
A|-------------------------------------7----------------------------------|
E|-------------------------------------0----------------------------------|
       you must not know 'bout me you must not know 'bout me

            Bmadd4                             D6add9
e|------------0----------------------------------0------------------------|
B|------------3----------------------------------0------------------------|
G|------------4----------------------------------7------------------------|
D|------------4----------------------------------7------------------------|
A|------------2----------------------------------5------------------------|
E|------------------------------------------------------------------------|
I could have another you in a minute matter fact he'll be here in a minute

        A                                 E5
e|------0---------------------------------0-------------------------------|
B|------5---------------------------------0-------------------------------|
G|------6---------------------------------9-------------------------------|
D|------7---------------------------------9-------------------------------|
A|------7---------------------------------7-------------------------------|
E|------5---------------------------------0-------------------------------|
   baby   you must not know 'bout me you must not know 'bout me

             Bmadd4
e|-------------0----------------------------------------------------------|
B|-------------3----------------------------------------------------------|
G|-------------4----------------------------------------------------------|
D|-------------4----------------------------------------------------------|
A|-------------2----------------------------------------------------------|
E|------------------------------------------------------------------------|
   I can have another you by tomorrow

              Dmadd9                        A
e|--------------0---------------------------0-----------------------------|
B|--------------6---------------------------5-----------------------------|
G|--------------7---------------------------6-----------------------------|
D|--------------7---------------------------7-----------------------------|
A|--------------5---------------------------7-----------------------------|
E|------------------------------------------5-----------------------------|
  so don't you ever for a second get to thinking
                                           (you must not know 'bout me

       E5
e|------0-----------------------------------------------------------------|
B|------0-----------------------------------------------------------------|
G|------9-----------------------------------------------------------------|
D|------9-----------------------------------------------------------------|
A|------7-----------------------------------------------------------------|
E|------0-----------------------------------------------------------------|
   you must not know 'bout me

            Bmadd4                             D6add9
e|------------0----------------------------------0------------------------|
B|------------3----------------------------------0------------------------|
G|------------4----------------------------------7------------------------|
D|------------4----------------------------------7------------------------|
A|------------2----------------------------------5------------------------|
E|------------------------------------------------------------------------|
I could have another you in a minute matter fact he'll be here in a minute

                A
e|--------------0---------------------------------------------------------|
B|--------------5---------------------------------------------------------|
G|--------------6---------------------------------------------------------|
D|--------------7---------------------------------------------------------|
A|--------------7---------------------------------------------------------|
E|--------------5---------------------------------------------------------|
  you can pack all your bags we're finished

               E5
e|-------------0----------------------------------------------------------|
B|-------------0----------------------------------------------------------|
G|-------------9----------------------------------------------------------|
D|-------------9----------------------------------------------------------|
A|-------------7----------------------------------------------------------|
E|-------------0----------------------------------------------------------|
   'cause you made your bed now lay in it

              D6add9
e|-------------0----------------------------------------------------------|
B|-------------0----------------------------------------------------------|
G|-------------7----------------------------------------------------------|
D|-------------7----------------------------------------------------------|
A|-------------5----------------------------------------------------------|
E|------------------------------------------------------------------------|
   I can have another you by tomorrow
            E5                                                      A
e|----------0-------------------------------------------------------0-----|
B|----------0-------------------------------------------------------5-----|
G|----------7-------------------------------------------------------6-----|
D|----------7-------------------------------------------------------7-----|
A|----------5-------------------------------------------------------7-----|
E|------------------------------------------------------------------5-----|
  so don't you ever for a second get to thinkin'you're irreplaceable
Related for Irreplaceable tab