Song name
# A B C D E F G H I J K L M N O P Q R S T U V W X Y Z

Beyond Fear - Scream Machine tab

http://www.spvusa.com/beyondfear/

Beyond Fear - Scream Machine  - Intro

D|-------------------------------------------|
A|-------------------------------------------|
F|-------------------------------------------|
C|-------------------------------------------|
G|-----7---8---10--8--7---7h8p--7------------|
D|-0-0---0---0---0---0--0------0-------------|

D|-------------------------------------------|
A|-------------------------------------------|
F|-------------------------------------------|
C|-------------------------------------------|
G|-----7---8---10--8--7--5-7-8-7-------------|
D|-0-0---0---0---0---0--0--------------------|

Tap to rate this tab
 
# A B C D E F G H I J K L M N O P Q R S T U V W X Y Z