Song name
# A B C D E F G H I J K L M N O P Q R S T U V W X Y Z

Beyond Filth - Moribund tab

~  let ring
`  Stacatto (short)
h  hammer on

First song by a band i'm in called beyond filth, im the drummer of the band, but i 
also play a little guitar.... so these tabs might not be EXACTLY it, but really 
really close, plus this is my first tab....i'll get the solo and more songs soon

hope u like it



e|-------------------------------------------------------------------|
B|-------------------------------------------------------------------|
G|-----------------------------------------5---4---5~------5---4---5~|
D|-----5---4---5~---------5---4---5~-----2---2---2-------2---2---2---|
A|---2---2---2----------2---2---2------0---------------0-------------|
E|-0------------------0----------------------------------------------|Repeat 2x

(dont know solo)


e|-------------------------------------------------------------------|
B|-------------------------------------------------------------------|
G|-----------------------------------------5---4---5~------5---4---5~|
D|-----5---4---5~---------5---4---5~-----2---2---2-------2---2---2---|
A|---2---2---2----------2---2---2------0---------------0-------------|
E|-0------------------0----------------------------------------------|Repeat 2x

(Another solo)
play this about 2.5x faster [Brigdge]
e|---------------------------------------------------------------------|
B|---------------------------------------------------------------------|
G|-----------------2-------------------------------2-------------------|
D|-----5---4---5-------5---4---5-------5---4---5-------5---4---5-------|
A|---2---2---2---2---2---2---2---2---2---2---2---2---2---2---2---2-----|
E|-0-------------------------------0-----------------------------------|


e|---------------------------------------------------------------------|
B|-----------------3-------------------------------3-------------------|
G|-----5---4---5-------5---4---5-------5---4---5-------5---4---5-------|
D|---2---2---2---2---2---2---2---2---2---2---2---2---2---2---2---2-----|
A|-0-------------------------------0-----------------------------------|
E|---------------------------------------------------------------------|Repeat whole Bridge

[Chorus]
e|-------------------------------------------------------------------|
B|-------------------------------------------------------------------|
G|-------------------------------------------------------------------|
D|-5~--5`--5`-----4~--4-----4---4h5----------------------------------|
A|-2~--2`--2`-22--2~--2-2-2-2-2-2------------------------------------|
E|-------------------------------------------------------------------|Repeat x2

e|------------------------------------------------|
B|------------------------------------------------|
G|------------------------------------------------|
D|-8~--8`--8`-----7~--7-----7---7h8---------------|
A|-5~--5`--5`-55--5~--5-5-5-5-5-5-----------------|
E|------------------------------------------------| 
Repeat this x2 then go back to beginning of chorus again



e|-------------------------------------------------------------------|
B|-------------------------------------------------------------------|
G|-----------------------------------------5---4---5~------5---4---5~|
D|-----5---4---5~---------5---4---5~-----2---2---2-------2---2---2---|
A|---2---2---2----------2---2---2------0---------------0-------------|
E|-0------------------0----------------------------------------------|
Repeat x2 then on ending note of the repeat let ring for about a measure



[Chorus]
e|-------------------------------------------------------------------|
B|-------------------------------------------------------------------|
G|-------------------------------------------------------------------|
D|-5~--5`--5`-----4~--4-----4---4h5----------------------------------|
A|-2~--2`--2`-22--2~--2-2-2-2-2-2------------------------------------|
E|-------------------------------------------------------------------|
Repeat x2

e|------------------------------------------------|
B|------------------------------------------------|
G|------------------------------------------------|
D|-8~--8`--8`-----7~--7-----7---7h8---------------|
A|-5~--5`--5`-55--5~--5-5-5-5-5-5-----------------|
E|------------------------------------------------| 
Repeat this x2 then go back to beginning of chorus again


e|-------------------------------------------------------------------|
B|-------------------------------------------------------------------|
G|-----------------------------------------5---4---5~------5---4---5~|
D|-----5---4---5~---------5---4---5~-----2---2---2-------2---2---2---|
A|---2---2---2----------2---2---2------0---------------0-------------|
E|-0------------------0----------------------------------------------|
Repeat x2 then on ending note of the repeat let ring for about a measure



well, thats it. have fun

Myspace.com/BeyondFilth
Tap to rate this tab
# A B C D E F G H I J K L M N O P Q R S T U V W X Y Z