Song name
# A B C D E F G H I J K L M N O P Q R S T U V W X Y Z

Beyond The Shore - Order Of Oceans tab

This is my transcription of : Beyond The Shore - "Order of Oceans"

Check out the band here: http://www.myspace.com/beyondtheshore

If you have the time please check out my youtube channel : www.youtube.com/xXGameFanXx

I post guitar covers there such as this song :)

This is my very first time making a tab so I hope it turns out ok. Learned it all
by ear of course. Enjoy!

Tuning: Drop B

0:00 - 0:30 (RIFF 1)

e|----------------------------------------------------|
B|----------------------------------------------------|
G|----------------------------------------------------|
D|-0-------3-3---(x2)-8---------8-8-----3------3-3----| <--Let these strings
A|-0---7-7-----7------8---12-12-----12--3---7-7----7--| <-- ring out.
E|-0-0----------------8-8---------------3-3-----------|
     .                  .                 .

The last time play this:

e|-------------]
B|-------------]
G|-------------]
D|-3-------3---]
A|-3---7-7-----]
E|-3-3---------]
     .



0:30 - 0:51 (RIFF 2)

e|----------------------------------------------------------------------]
B|----------------------------------------------------------------------]
G|----------------------------------------------------------------------]
D|----------------------------------------------------------------------]
A|-3h8p3---3h5p3--------------------3h8p3---3h5p3-----7-----8-----10----]
E|-------8-------0-0-0-0-0-0-0-0-0--------8-------0-0---3-0---5-0----7--]
                 . .   . .   . .                  . .     .     .




0:51 - 1:11 (RIFF 3)

e|-------------------------------------------------------------]
B|-------------------------------------------------------------]
G|-------------------------------------------------------------]
D|-------------------------------------------------------------]
A|---------------------12------8---------------------7-----3---]
E|-0-0--0-0--0-0--0-0-----8-12---0-0--0-0--0-0--0-0----3-7-----]

The last time play this:

e|----------------------------------------]
B|----------------------------------------]
G|----------------------------------------]
D|----------------------------------------]
A|---------------12------8----------------]
E|-0-0--0-0--0-0----8-12---0-0--0-0--0-0--]



REPEAT (RIFF 1) 1:11 - 1:33



1:33 - 1:46 (RIFF 4)

e|-----------------------------------------------------------]
B|-----------------------------------------------------------]
G|-----------------------------------------------------------]
D|-0~-------0~---1-1-1-1-1-1-1-1---0~-------0~---1-1--1-1----]
A|-0~-------0~---1-1-1-1-1-1-1-1---0~-------0~---1-1--1-1----]
E|-0~---0---0~---1-1-1-1-1-1-1-1---0~---0---0~---1-1--1-1----]
        .        . . . . . . . .        .        . .  . .



1:46 - 2:14 (RIFF 5)

e|-------------------------------------------------------------------------|
B|-------------------------------------------------------------------------|
G|-------------------------------------------------------------------------|
D|-------------------------------------------------------------------------|
A|-0--0-0--0-0--12-----12--0-0-0--0-0--12-----12--0--0-0--0-0--12-----12---|
E|-0--0-0--0-0-----8-8-----0-0-0--0-0-----8-8-----0--0-0--0-0-----8-8------|
   .  . .  . .             . . .  . .             .  . .  . .

e|-----------------------------------------------]
B|-----------------------------------------------]
G|-----------------------------------------------]
D|---------------------8h12p8h12-----------------]
A|-----------8h12p8h12-----------8h12p8h12-------]
E|-8h12p8h12-------------------------------------]




2:14 - 3:03 (RIFF 6) Play with a clean tone and let ring out.

e|---------------------------------------------------------------|
B|---------------------------------------------------------------|
G|---------------------------------------------------------------|
D|---------3---------(x2)-----------8------------------3---------|
A|-----7------7---7------------12-----12---12------7-----7---7---|
E|-0-0---0------0----------8-8----8------8-----3-3---3-----3-----|

 Distortion on :

e|-----------------------------------------------------------------------|
B|-----------------------------------------------------------------------|
G|-----------------------------------------------------------------7-----|
D|---------3-------7--(x2)-----------8--------12----------3--------------|
A|-----7------7-----------------12------12------------7------7-----------|
E|-0-0---0-------0----------8-8----8--------8-----3-3---3-------3--------|
   . .                      . .                   . .   .

The last time play this:

e|-----------------------]
B|-----------------------]
G|------------7~---------]
D|-0~---------7~---------]
A|-0~---------5~---------]
E|-0~--------------------]



REPEAT (RIFF 2) 3:03 - 3:23



3:23 - END (RIFF 7)


e|--------------------------------------------------------------------]
B|--------------------------------------------------------------------]
G|--------------------------------------------------------------------]
D|------------------------------------------------------------0~~~----]
A|-7--------8--------10---------12--------10-----8------------0~~~----]
E|----3--0-----5--0-------7--0------8--0------0---------------0~~~----]
         .        .          .         .      .
Tap to rate this tab
 
# A B C D E F G H I J K L M N O P Q R S T U V W X Y Z