Song name
# A B C D E F G H I J K L M N O P Q R S T U V W X Y Z

Beyond - Glorious Years tab

Beyond- Hai Guo Tian Kong

Intro

e|-------4--5-4-4----------------------------------0--12-12----------4-5-4-4-|
B|-4-5-7----------7-7--5-4---------------5-4-5-4-5-------------4-5-7---------|
G|-------------------------6---------4-6v------------------------------------|
D|----------------------------6-4-6------------------------------------------|
A|---------------------------------------------------------------------------|
E|---------------------------------------------------------------------------|

e|-7-7-----------------------------------0--12-12----------------------------|
B|------5-4-?-?--------------------------------------------------------------|
G|---------------6-4-6---4-6v------------------------------------------------|
D|-----------------------------------2-3-------------------------------------|
A|-------------------------------0-2-----------------------------------------|
E|-----------------------------3---------------------------------------------|


Solo

e|--------------------------------5-4-5-7-5-4---3p4-4------------------------|
B|-5-4-4h5--4-5-7-5-4h5-2------9--------------7-------7--5-9--7-5-9v-4p6-----|
G|---------------------------------------------------------------------------|
D|---------------------------------------------------------------------------|
A|------------------------0-0------------------------------------------------|
E|---------------------------------------------------------------------------|

e|---------------14p15-16-18-16-15h13-16v-(x5)-------------------------------|
B|-5-4-5-4-8p12--------------------------------------------------------------|
G|---------------------------------------------------------------------------|
D|---------------------------------------------------------------------------|
A|---------------------------------------------------------------------------|
E|---------------------------------------------------------------------------|
Tap to rate this tab
 
# A B C D E F G H I J K L M N O P Q R S T U V W X Y Z