Song name
# A B C D E F G H I J K L M N O P Q R S T U V W X Y Z

Bhayanak Maut - Dear Name tab

This song is originally played on a seven string guitar and i have tabbed it for  
a 6 string guitar. This is an easy song and very fun to play. According to me the 
tabs are 100% correct. Any corrections, please e-mail me saurav0292@gmail.com.
Tuning - Standard
/  - Slide
() - Pinch Harmonics
~  - let the note ring
MAIN RIFF
(If i could free my self....)

e |-------------------------------------|
B |-------------------------------------|
G |-------------------------------------|
D |-------------------------------------|
A |-----------5h7p5p0-------------------| X 3 times
E |---0--0--------------5------3h5p3p0--|

(I'd like to tear you.........)
e |-------------------------------------|
B |-------------------------------------|
G |--5---------3------------------------|
D |--5---5-----3---3----3/--------------|
A |--3---5-----1---3----3/--------------|
E |----- 3---------1----1/--------------|

(Squeeze every ounce of life.......)
e |-------------------------------------|
B |-------------------------------------|
G |-------------------------------------|
D |-------------------------------------|
A |-----------5h7p5p0-------------------| X 3 times
E |---0--0--------------5------3h5p3p0--|

(Waited so long.........)
e |-------------------------------------|
B |-------------------------------------|
G |--5---------3------------------------|
D |--5---5-----3---3----3/--------------|
A |--3---5-----1---3----3/--------------|
E |----- 3---------1----1/--------------|

(Wipe that smile, crush your dreams....)
e |-------------------------------------|
B |-------------------------------------|
G |-------------------------------------|
D |-------------------------------------|
A |-----------5h7p5p0-------------------| X 3 times
E |---0--0--------------5------3h5p3p0--|

(Are you ready to die.........)
e |-------------------------------------|
B |-------------------------------------|
G |--5---------3------------------------|
D |--5---5-----3---3----3/--------------|
A |--3---5-----1---3----3/--------------|
E |----- 3---------1----1/--------------|


e |-------------------------------------|
B |-------------------------------------|
G |-------------------------------------|
D |-------------------------------------|
A |--2~~~~~~----------------------------|
E |--0--000--000--000--(3)------------- |

e |-------------------------------------|
B |-------------------------------------|
G |-------------------------------------|
D |-------------------------------------|
A |-----2-----2------2------------------|
E |--0--0--0--0--0---0------------------|

(These shades they just won't)
e |-------------------------------------| (Use reverse strokes to play
B |---------------5--5---7--7-----6-----| these chords)
G |-3/6--6--6--6--5--5---7--7-----5-----| 
D |-3/6--6--6--6--3--3---5--5-----3-----|
A |-1/4--4--4--4------------------------|
E |-------------------------------------|

e |-------------------------------------|
B |-------------------------------------|
G |-------------------------------------|
D |-------------------------------------|
A |--2~~~~~~----------------------------|
E |--0--000--000--000--(3)------------- |

e |-------------------------------------|
B |-------------------------------------|
G |-------------------------------------|
D |-------------------------------------|
A |-----2-----2------2------------------|
E |--0--0--0--0--0---0------------------|


e |-------------------------------------| (Use reverse strokes to play
B |---------------5--5---7--7-----6-----| these chords)
G |-3/6--6--6--6--5--5---7--7-----5-----| 
D |-3/6--6--6--6--3--3---5--5-----3-----|
A |-1/4--4--4--4------------------------|
E |-------------------------------------|

e |-------------------------------------|
B |-------------------------------------|
G |-------------------------------------|
D |-------------------------------------|   
A |--2~~~~~~----------------------------|
E |--0--000--000--000--(3)------------- |

e |-------------------------------------|
B |-------------------------------------|
G |-------------------------------------|
D |-------------------------------------|
A |-----2-----2------2------------------|
E |--0--0--0--0--0---0------------------|

(I've made my bones over...........)

e |-------------------------------------| (the 1/12 slide part is not exact,
B |-------------------------------------| slip up to longer if desired, i 
G |-------------------------------------| wrote 1/12 cause its a long slide)
D |-------------------------------------|
A |---------1/12-----------1/12---------|
E |--0--0----------0--0-----------------|

e |-------------------------------------|
B |-------------------------------------|
G |-------------------------------------|
D |-------------------------------------|
A |--------------------14---------------|
E |--12-12-12-12-12-------15--12--------|

e |-------------------------------------|
B |-------------------------------------|
G |-------------------------------------|
D |-------------------------------------|
A |-------------------------------------|
E |--8--8---5/12-------8--8--5/12-------|

e |-------------------------------------|
B |-------------------------------------|
G |-------------------------------------|
D |-----------------------------3p2-----|
A |-----------------3----5--------------|
E |---5--5--5--5------------------------|

e |-------------------------------------| (the 1/12 slide part is not exact,
B |-------------------------------------| slip up to longer if desired, i 
G |-------------------------------------| wrote 1/12 cause its a long slide)
D |-------------------------------------|
A |---------1/12-----------1/12---------|
E |--0--0----------0--0-----------------|

e |-------------------------------------|
B |-------------------------------------|
G |-------------------------------------|
D |-------------------------------------|
A |--------------------14---------------|
E |--12-12-12-12-12-------15--12--------|

e |-------------------------------------|
B |-------------------------------------|
G |-------------------------------------|
D |-------------------------------------|
A |-------------------------------------|
E |--8--8---5/12-------8--8--5/12-------|

e |-------------------------------------|
B |-------------------------------------|
G |-------------------------------------|
D |-----------------------5----7--------|
A |--------------3----5-----------------|
E |---5--5--5---------------------------|

play the Chorus part, after that-

(GRIPPING IT
FIGHTING IT,
FREE OF ALL DECEPTION)

e |--------------------------------------|
B |--------------------------------------|
G |--9--9--9/----9--9--9/----------------|
D |--7--7--7/----7--7--7/---10--10--10/--|
A |--7--7--7/----7--7--7/---8---8---8/---|
E |-------------------------8---8---8/---|


e |--------------------------------------|
B |--------------------------------------|
G |-----------7--------------------------|
D |--7--7-----5--------------------------|      X 2
A |--5--5-----5--------------------------|
E |--5--5--------------------------------|

e |-------------------------------------| (the 1/12 slide part is not exact,
B |-------------------------------------| slip up to longer if desired, i 
G |-------------------------------------| wrote 1/12 cause its a long slide)
D |-------------------------------------|
A |---------1/12-----------1/12---------|
E |--0--0----------0--0-----------------|

e |-------------------------------------|
B |-------------------------------------|
G |-------------------------------------|
D |-------------------------------------|
A |--------------------14---------------|
E |--12-12-12-12-12-------15--12--------|

e |-------------------------------------|
B |-------------------------------------|
G |-------------------------------------|
D |-------------------------------------|
A |-------------------------------------|
E |--8--8---5/12-------8--8--5/12-------|

e |-------------------------------------|
B |-------------------------------------|
G |-------------------------------------|
D |-----------------------------3p2-----|
A |-----------------3----5--------------|
E |---5--5--5--5------------------------|

e |-------------------------------------| (the 1/12 slide part is not exact,
B |-------------------------------------| slip up to longer if desired, i 
G |-------------------------------------| wrote 1/12 cause its a long slide)
D |-------------------------------------|
A |---------1/12-----------1/12---------|
E |--0--0----------0--0-----------------|

e |-------------------------------------|
B |-------------------------------------|
G |-------------------------------------|
D |-------------------------------------|
A |--------------------14---------------|
E |--12-12-12-12-12-------15--12--------|

e |-------------------------------------|
B |-------------------------------------|
G |-------------------------------------|
D |-------------------------------------|
A |-------------------------------------|
E |--8--8---5/12-------8--8--5/12-------|

e |-------------------------------------|
B |-------------------------------------|
G |-------------------------------------|
D |------------------12--12--12--12-----|
A |------------------12--12--12--12-----|
E |---5--5--5--------10--10--10--10-----|

e |-------------------------------------|
B |-------------------------------------|
G |-------------------------------------|
D |3--2-----3--6--3------3----2-2-2-2-2-| x 5
A |3--0--2--3--6--3--2---3--2-----------|
E |1-----0--1--4--1--0---1--0-----------|


e |-------------------------------------|
B |-------------------------------------|
G |-------------------------------------|
D |-------------------------------------|
A |-2--2--2--2--2------5--5--5--5--5----|
E |-0--0--0--0--0------3--3--3--3--3----|


e |-------------------------------------|
B |--------------------------------7-7/-|
G |--------------------------------7-7/-|
D |-3--3--3--3--3---6--6--6--6--6--5-5/-|
A |-1--1--1--1--1---4--4--4--4--4-------|
E |-------------------------------------|

(Palm muting in this part)
e |-------------------------------------|
B |-------------------------------------|
G |---4------------4--------------------|
D |---2--3---------2----6--6/7----------|
A |------1---2----------4--4/5----------|
E |----------0--------------------------|

e |-------------------------------------|
B |-------------------------------------|
G |---4---------------------------------|
D |---2--3----------2-2-2-2-2-2---------|
A |------1---2------1-1-1-1-1-1---------|
E |----------0--------------------------|

e |-------------------------------------|
B |-------------------------------------|
G |---4------------4--------------------|
D |---2--3---------2----6--6/7----------|
A |------1---2----------4--4/5----------|
E |----------0--------------------------|

e |-------------------------------------|
B |-------------------------------------|
G |---4---------------------------------|
D |---2--3--------2-2-2-2-2-2-2-2-2-2-2-|
A |------1---2----1-1-1-1-1-1-1-1-1-1-1-|
E |----------0--------------------------|

last part (I've freed myself......)
e |-------------------------------------|
B |-------------------------------------|
G |-------------------------------------|
D |-------------------------------------|
A |-----------5h7p5p0-------------------|
E |---0--0--------------5------3h5p3p0--|


e |-------------------------------------|
B |-------------------------------------|
G |--5---------3------------------------|
D |--5---5-----3---3----3/--------------|
A |--3---5-----1---3----3/--------------|
E |----- 3---------1----1/--------------|

Repeat whole above riff 3 times


End part -
 

e |-------------------------------------|
B |-------------------------------------|
G |--5---------3------------------------|
D |--5---5-----3---3----3/--------------|
A |--3---5-----1---3----3/--------------|
E |----- 3---------1----1/--------------|

e |-------------------------------------|
B |-------------------------------------|
G |--9---------6------------------------|
D |--9---8-----6---6----6/--------------|
A |--7---8-----4---6----6/--------------|
E |----- 6---------4----4/--------------|

e |-------------------------------------|
B |-------------------------------------|
G |--12-----------10--------------------|
D |--12---12------10---10---------------|
A |--10---12------8----10---------------|
E |-------10-----------8----------------|


e |-------------------------------------|
B |-------------------------------------|
G |-------------------------------------|
D |-------------------------------------|
A |----2~~~~~~~~~~----------------------|
E |----0~~~~~~~~~~----------------------|
Tap to rate this tab
# A B C D E F G H I J K L M N O P Q R S T U V W X Y Z