Song name
# A B C D E F G H I J K L M N O P Q R S T U V W X Y Z

Bhool Bhulaiya - Hare Ram tab

Help us improve GuitareTab! Take a short survey!
INTRO:

----------------------------------------------------------------|
------1-1-1-1-1-1---3-4-----1-1-1-1-1-1-------------------------|
------------------------------------------1--0------------------|
----------------------------------------------------------------|
----------------------------------------------------------------|
----------------------------------------------------------------|

CHORUS:

------------------------------1---------------------------------|
-----1--3--4--4-3-1---1--3--4----3--4--1------------------------|
----------------------------------------------------------------|
----------------------------------------------------------------|
----------------------------------------------------------------|
----------------------------------------------------------------|

-----1--3--4--4--3--1--1--3--4--5--1--3-4-----------------------|
--------------------------------------------1--3--4-------------|
----------------------------------------------------------------|
----------------------------------------------------------------|
----------------------------------------------------------------|
----------------------------------------------------------------|

ok so dats almost da whole song m nt sure abt da verse part soo nt posted it oderwize 
awzum!!!
Related for Hare Ram tab