Song name
# A B C D E F G H I J K L M N O P Q R S T U V W X Y Z

Bhse Onkelz - Auf Gute Freunde tab

Wir trinken auf, alte Götter, verlorene Liebe und auf gute Freunde!
(Das ist mein erster TAB also bitte nicht zu hart bewerten)
Falls was nicht stimmt bitte als kommentar schreiben.
Passt besser zu den live Versionen in Youtube.
/ =Zum nächsten angegebenen Bund sliden
~ =Die Saite etwas länger klingen lassen
* =Abgedämpft spielen

Intro:
E|----------------------------------------------------|
B|----------------------------------------------------|
G|----------------------------------------------------|
D|----------------------------------------------------|(6mal spielen)
A|-----5~~--------5~~----------------5~~---------5~---|(bei live version
E|5-6-7----7-5-6-7----7-5-6-7---5-6-7----7-5-6-7---7~~| 5 mal)

  ******  *******    ************  *******
E|----------------------------------------------------|
B|----------------------------------------------------|
G|----------------------------------------------------|
D|999999--5555555--12121212121212--7777777--5/6/7/8/9-|(3mal spielen)
A|999999--5555555--12121212121212--7777777--5/6/7/8/9-|
E|777777--3333333--10101010101010--5555555--3/4/5/6/7-|
  Verschüttete Träume, Bilder aus alten Tagen,
  Vom Wahnsinn den ich lebte und was sie mir heute sagen,
  Ich schlief zu wenig und ich trank zu viel,

   ******    *******
E|----------------------------------------------------|
B|----------------------------------------------------|
G|----------------------------------------------------|
D|9999999----5555555----12121212121212----7777777-----|
A|9999999----5555555----12121212121212----7777777-----|
E|7777777----3333333----10101010101010----5555555-----|
  Die Schmerzen im Kopf war'n, ein vertrautes Gefühl.
 
                  Ich trinke auf,
E|----------------------------------------------------|
B|----------------------------------------------------|
G|----------------------------------------------------|
D|9999999----5555555----12121212121212----7777777-----|(4 mal spielen)
A|9999999----5555555----12121212121212----7777777-----|
E|7777777----3333333----10101010101010----5555555-----|
  Auf gute Freunde, verlorene Liebe,
  Auf alte Götter, und auf neue Ziele,
  Auf den ganz normalen Wahnsinn, Auf das was einmal war,
  Darauf das alles endet und auf ein neues Jahr, auf ein neues Jahr.

E|----------------------------------------------------|
B|----------------------------------------------------|
G|----------------------------------------------------|
D|----------------------------------------------------|(2mal spielen)
A|-----5~~--------5~~----------------5~~---------5~---|
E|5-6-7----7-5-6-7----7-5-6-7---5-6-7----7-5-6-7---7~~|

  ******  *******    ************  *******
E|----------------------------------------------------|
B|----------------------------------------------------|
G|----------------------------------------------------|
D|999999--5555555--12121212121212--7777777--5/6/7/8/9-|(3mal spielen)
A|999999--5555555--12121212121212--7777777--5/6/7/8/9-|
E|777777--3333333--10101010101010--5555555--3/4/5/6/7-|
  Blutige Küsse, bittere Pillen,
  Vom Schicksal gefickt und immer drei Promille,
  Ich war Teil der Lösung und mein größtes Problem,

   ******    *******
E|----------------------------------------------------|
B|----------------------------------------------------|
G|----------------------------------------------------|
D|9999999----5555555----12121212121212----7777777-----|
A|9999999----5555555----12121212121212----7777777-----|
E|7777777----3333333----10101010101010----5555555-----|
  Ich stand vor mir und konnte mich nicht sehn.

                   Ich trinke auf,
E|----------------------------------------------------|
B|----------------------------------------------------|
G|----------------------------------------------------|
D|9999999----5555555----12121212121212----7777777-----|(4 mal spielen)
A|9999999----5555555----12121212121212----7777777-----|
E|7777777----3333333----10101010101010----5555555-----|
  Auf gute Freunde, verlorene Liebe,
  Auf alte Götter, und auf neue Ziele,
  Auf den ganz normalen Wahnsinn, auf das was einmal war,
  Darauf das alles endet und auf ein neues Jahr...

E|----------------------------------------------------|
B|----------------------------------------------------|
G|----------------------------------------------------|
D|55555----77777----1212121212----99999---------------|(3 mal spielen)
A|55555----77777----1212121212----99999---------------|
E|33333----55555----1010101010----77777---------------|
  Das Gras war grüner, die Linien schneller,
  Der Reiz war größer und die Nächte waren länger,
  Alles Geschichte und ich bin froh das es so ist,

E|----------------------------------------------------|
B|----------------------------------------------------|
G|----------------------------------------------------|
D|55555----77777----1212121212----99999----9----99----|
A|55555----77777----1212121212----99999----9----99----|
E|33333----55555----1010101010----77777----7----77----|
  Oder glaubst du es ist schön, wenn man Scheiße frisst.

E|----------------------------------------------------|
B|----------------------------------------------------|
G|----------------------------------------------------|
D|----------------------------------------------------|
A|-----------------------------9-7~--7-------7b9------|
E|7-10-9-7~--9-7~--7-10-9-7-9-----10--9~--10-----10-9~|

E|----------------------------------------------------|
B|----------------------------------------------------|
G|-------------------------------------------------7--|
D|------------------------------------------7~7-9-9-7~|
A|------------------------------9~-7~-9~-10~----------|
E|7-10-9-7~-9-7~----7-10-9-7-9~-----------------------|

E|7b9-7b9~-7-5-------------7-5------------------------|
B|-------------7-5~-5-7-7------7-5---5h7p5---5~-------|
G|-----------------7---------------7~------7----------|
D|----------------------------------------------------|
A|----------------------------------------------------|
E|----------------------------------------------------|

E|7p5--5h7p5--5h7p5--5h7p5--5-10p7--7h10p7--7h10p7--7h10p7--7|
B|----7------7------7------7------10------10------10------10-|
G|-----------------------------------------------------------|
D|-----------------------------------------------------------|
A|-----------------------------------------------------------|
E|-----------------------------------------------------------|

E|14-14-14--12-12-12--10-10-10--9-9-9--10-12~~~~~~~~--|
B|----------------------------------------------------|
G|----------------------------------------------------|
D|----------------------------------------------------|
A|----------------------------------------------------|
E|----------------------------------------------------|

  ******  *******    ************  *******
E|----------------------------------------------------|
B|----------------------------------------------------|
G|----------------------------------------------------|
D|999999--5555555--12121212121212--7777777--5/6/7/8/9-|(3mal spielen)
A|999999--5555555--12121212121212--7777777--5/6/7/8/9-|
E|777777--3333333--10101010101010--5555555--3/4/5/6/7-|
  Alles nur Splitter, im Treibsand meiner Seele,
  Nur wenige Momente, in einem Leben,
  Ich höre himmlisches Gelächter, wenn ich dran denke wie ich war,

   ******    *******
E|----------------------------------------------------|
B|----------------------------------------------------|
G|----------------------------------------------------|
D|9999999----5555555----12121212121212----7777777-----|
A|9999999----5555555----12121212121212----7777777-----|
E|7777777----3333333----10101010101010----5555555-----|
  An das Rätsel das ich lebte und den Gott den ich nicht sah.

                   Ich trinke auf,
E|----------------------------------------------------|
B|----------------------------------------------------|
G|----------------------------------------------------|
D|9999999----5555555----12121212121212----7777777-----|(4 mal spielen)
A|9999999----5555555----12121212121212----7777777-----|
E|7777777----3333333----10101010101010----5555555-----|
  Auf gute Freunde, verlorene Liebe,
  Auf alte Götter, und auf neue Ziele,
  Auf den ganz normalen Wahnsinn, Auf das was einmal war,
  Darauf das alles endet und auf ein neues Jahr, auf ein neues Jahr.

E|----------------------------------------------------|
B|----------------------------------------------------|
G|----------------------------------------------------|
D|----------------------------------------------------|(2mal spielen)
A|-----5~~--------5~~----------------5~~---------5~---|
E|5-6-7----7-5-6-7----7-5-6-7---5-6-7----7-5-6-7---7~~|


                          ENDE
Tap to rate this tab
# A B C D E F G H I J K L M N O P Q R S T U V W X Y Z