Song name
# A B C D E F G H I J K L M N O P Q R S T U V W X Y Z

Bi Rain - Escaping The Sun tab

>||Bi Rain - Escaping The Sun||<
Intro Acoustic Guitar

Tabbed by Phillep jag_urb@hotmail.com


STANDARD TUNING


x   - on rhythm slash represents muted slash


e|-9--------9--9---------9--------9--8---------8--------8--6--|
B|-------6---------------------6---------------------6--------|
G|----6---------------------6---------------------6-----------|  
D|------------------------------------------------------------|   
A|-----------------------6-----------6---------4-----------4--|  
E|-6-----------6----------------------------------------------|


e|-6--------6--5--x--6--8-------------------------------------|
B|-------5--------x-------------------------------------------|
G|----5-----------x--5--7-------------------------------------|  
D|-------------3--x-------------------------------------------|   
A|-3----------------------------------------------------------|  
E|------------------------------------------------------------|


This is played pretty much throughout the song.
Tap to rate this tab
# A B C D E F G H I J K L M N O P Q R S T U V W X Y Z