Song name
# A B C D E F G H I J K L M N O P Q R S T U V W X Y Z

Bibio - Lovers Carvings tab

http://warp.net/records/bibio

I'm still working on this tab but I thought I write down what I had, as little as that 
For the first part, I only know the the first to chords, G and C:


G:
e|---------------------|
B|-------0---0---------|
G|-------0---0---------|
D|----0----0---0-------|
A|---------------------|
E|-3-------------------|

C:
e|----------------------|
B|-------1---1----------|
G|-------0---0----------|
D|----2----2---2--------|
A|-3--------------------|
E|----------------------|

Then there's the break, which is very simple and repeats itself until the end:

e|-7--10--7----10--12--8----7--5--3---------------|
B|-8--12--8----12--13--8----7--5--3----5--8--3----|
G|-------------------------------------5--9--4----|
D|------------------------------------------------|
A|------------------------------------------------|
E|------------------------------------------------|

I'll appreciate some help regarding the first part.

Tabbed by: Radiobuzz
Email: radiobuzz_1@hotmail.com
Tap to rate this tab
 
# A B C D E F G H I J K L M N O P Q R S T U V W X Y Z