Song name
# A B C D E F G H I J K L M N O P Q R S T U V W X Y Z

Bibio - Lovers Carvings tab

Bibio - Lovers Carvings

written by Stephen James Wilkinson

Tab attempted by benoblest.


e|-----3-----3---------7-----7-------|
B|-----0-----0-----------------------|
G|---------------------5-----5-------|
D|--(0)---0----0----5-----5-----5----|
A|----------------3------------------|
E|-3-------------(3)-----------------|


e|-----3-----3---------7-----7-------|
B|-----0-----0---------------------3-|
G|---------------------5-----5-------|
D|---0---0-----0----5-----5-----5----|
A|----------------3------------------|
E|-3-------------(3)-----------------|


e|-7--10-------------10---12---8-------7----5----3--------0----3------------|
B|----------12------------------------------------------------------3-------|
G|-9--11----12-------12---11---9-------7----5----4--------2----4------------|
D|----------------------------------------------(5)------(2)--(5)---5-------|
A|--------------------------------------------------------------------------|
E|--------------------------------------------------------------------------|

e|-7--10-------------10---12---8-(8p7)-7----5----3--------0----3------------|
B|----------12------------------------------------------------------3-------|
G|-9--11----12-------12---11---9-------7----5----4--------2----4----------0-|
D|----------------------------------------------(5)------(2)--(5)---5--0h2--|
A|--------------------------------------------------------------------------|
E|--------------------------------------------------------------------------|


I believe theres one more guitar playing root notes.  I put most of that part in the parenthesis.
Tap to rate this tab
 
# A B C D E F G H I J K L M N O P Q R S T U V W X Y Z