Bibio - Lovers Carvings tab

-------------------------------------------------------------------------------
			     LOVERS' CARVINGS - Bibio
-------------------------------------------------------------------------------
Tabbed by: Nick Byars

Tuning: Standard

e|------7------10------7------------10------12------8-------------------------|
B|------5-------7------8-------------8-------8------5-------------------------|
G|----------------------------------------------------------------------------|
D|----------------------------------------------------------------------------|
A|----------------------------------------------------------------------------|
E|----------------------------------------------------------------------------|

e|------7------5------3-------------------3-----------------------------------|
B|------5------7------3------------5------3------3----------------------------|
G|-------------------------------- 5-------------4----------------------------|
D|----------------------------------------------------------------------------|
A|----------------------------------------------------------------------------|
E|----------------------------------------------------------------------------|

e|------7------10------7------------12------10------8------8p7----------------|
B|------5-------7------8-------------8-------7------5-------------------------|
G|----------------------------------------------------------------------------|
D|----------------------------------------------------------------------------|
A|----------------------------------------------------------------------------|
E|----------------------------------------------------------------------------|

e|------7------5------3-------------------3-----------------------------------|
B|------5------7------3------------5------3------3----------------------------|
G|-------------------------------- 5-------------4----------------------------|
D|----------------------------------------------------------------------------|
A|----------------------------------------------------------------------------|
E|----------------------------------------------------------------------------|

Enjoy!
Tap to rate this tab
 
# A B C D E F G H I J K L M N O P Q R S T U V W X Y Z