Song name
# A B C D E F G H I J K L M N O P Q R S T U V W X Y Z

Bibio - You Wont Remember chords

capo 7

Here's the Chords. For the picking pattern/ jumping chords, listen to the song,
its nice and Vedder-like


Verse
0-x-0-------0-x-|
1-3-1-p0-h1-1-1-|
0-x-2-------0-0-|
2-x-2-------2-2-|
3-2-0-------0-3-|
0-x-x-------3-1-|

0-0-x-0-------0-x-|
3-1-3-1-p0-h1-1-1-|
0-0-x-2-------0-0-|
0-2-x-2-------2-2-|
0-3-2-0-------0-3-|
3-0-x-x-------3-1-|


Chorus (not sure about the third, see youtube)
x-x-0-0-x-x-x-x-|
5-8-0-1-3-1-0-1-|
4-7-0-2-x-0-0-2-|
2-5-3-2-x-2-0-2-|
3-x-2-0-2-3-x-0-|
x-7-1-x-x-x-0-x-|

Enjoy
Tabbed by Kaysan
Tap to rate this tab
# A B C D E F G H I J K L M N O P Q R S T U V W X Y Z