Song name
# A B C D E F G H I J K L M N O P Q R S T U V W X Y Z

Bibio - The Palm Of Your Wave tab

Bibio - The Palm of Your wave (from Ambivalence Avenue).

Standart tuning.

a)

e||--3--------1--------3--------1--------|--10-----10--6--------10-----10--6--------|
B||-----3--3-----3--3-----3--3-----3--3--|------------------------------------------|
G||-----3--0-----3--0-----3--0-----3--0--|----------------7--7----------------7--7--|
D||--------------------------------------|------8---------8--8------8---------8--8--|
A||--------------------------------------|---6---------6---------6---------6--------|
E||--3--------3--------3--------3--------|------------------------------------------|


b)

|------6----------6----------6----------6------|--5-----------------5-----------------|
|--8----------8----------8----------8----------|-----------6-----------------6--------|
|----------------------------------------------|--------------------------------------|
|---------10---------10---------10---------10--|--------8--------8--------8--------8--|
|-----10---------10---------10---------10------|-----8--------8--------8--------8-----|
|--8----------8----------8----------8----------|--6--------6--------6--------6--------|

|--------------------------------------|--------------------------------------|
|-----4--------4--------4--------4-----|-----4--------4--------4--------4-----|
|--7--------7--------7--------7--------|--7--------7--------7--------7--------|
|--------8--------8--------8--------8--|--------0--------0--------0--------0--|
|--6--------6--------6--------6--------|-----8--------8--------8--------8-----|
|--------------------------------------|--6--------6--------6--------6--------|

c)

|--3----------|
|--3----------|
|--3----------|
|--5----------|
|-------------|
|-------------|


Intro.   
a) - x1
(Humble)

Verse 1. 
[Play a) 3 times]

Hoping this train gets lost on the way here
To lengthen the wait, to stretch out the day longer
The night is so cold, the wind cuts us both stronger

Chorus.
[Play b) once.]

Oh, this moment
Just be forever

etc.


Outro.
Play a) once and then end with c)
Tap to rate this tab
# A B C D E F G H I J K L M N O P Q R S T U V W X Y Z