Song name
# A B C D E F G H I J K L M N O P Q R S T U V W X Y Z

Bic Runga - When I See You Smile chords

Highlighted       Show chord diagrams
Song:		When I See You Smile
Artist:		Bic Runga
Album:		Beautiful Collision
tabbed by James van Rooyen

Chords:
   D   D/C#   Bm    G   A   F#m   Gmaj7    F#  Fsus4
E--------------2----3---5----2------2------2------2-------------------|
B--7----7------3----3---5----2------3------2------2-------------------|
G--7----7------4----4---6----2------4------3------4-------------------|
D--7----7------4----5---7----4------5------4------4-------------------|
A--5----4------2----5---7----4-------------4------4-------------------|
E-------------------3---5----2-------------2------2-------------------|

When the Fsus4 comes up, just play around with the 3 (Bb) and 4 (B) on the G string,
to get the hang on how Bic does it, and then the final F# strum on the "...be"


D
When I see you smile
   D/C#           Bm
It feels like I'm falling
             G
It's not for anybody else to know
A                                 F#m
The way your face could light the bitter dark of every street
         Bm
In every town I'll ever go
             G
It's not for anybody else to know
A                   D
For anybody else to know

D
When I see you smile
D/C#               Bm (FILL1)             
First thing in the morning
          Gmaj7
It raises curtains on your lazy eyes
A                        G          F#      Fsu4          F#
Could it be that you and I have the greatest love to ever be
    Bm                   
How could this have ever been before?
             Gmaj7
It's not for anybody else to know
A                   
For anybody else to know

G           A
When Friday night arrives
             F#m              Bm
We'll let it pass outside the door
                 G
This is not for anybody else
A                        D
Anybody else to know

 
Fill 1
E-------------2------------------------------------------------------|
B---------0h2---3----------etc---------------------------------------|
G-------4---------4-----4--------------------------------------------|
D-----4---------------4----------------------------------------------|
A---2---------------2------------------------------------------------|
E--------------------------------------------------------------------|
Tap to rate this tab
# A B C D E F G H I J K L M N O P Q R S T U V W X Y Z