Song name
# A B C D E F G H I J K L M N O P Q R S T U V W X Y Z

Bic Runga - Drive chords

Highlighted       Show chord diagrams
Well, this is a first crack at making a tba, mostly cause I 
couldn't find a tab that sounded like the song (well at least 
when I was playing it).

Awesome song, but the guitar is very soft, so it's hard to pick 
up the exact picking order. This isn't exactly how I like to play 
it, but I think this is what the lovely Boc Runga does on 
the recording.

Standard Tuning (EADGBe), Capo on the 5th.

Chords are as follows (relative to the capo)

CHORD:    F      Am      Dm7     C       Bb
SHAPE:    C      Em      Am7     G       F
          --------------------------------
      e | 0      0       0       3       1
      B | 1      0       1       0       1
      G | 0      0       2       0       2
      D | 2      2       2       0       3
      A | 3      2       0       2       3
      E | X      0       X       3       1

For the below I've got the Acutal chord name, 
followed by the open shape in brackets.

VERSE + CHORUS (fingerings relative to Capo)
==============
    F(C)             Am(Em)           Dm7(Am7)            C(G)
e|-----------------|----------------|----------------|----------------|
B|--------1--------|-------0--------|-------1--------|-------0--------|
G|------0----------|-----0----------|-----0----------|-----0----------|
D|----2------2---2-|---2------2---2-|---2------2---2-|---0------0---0-|
A|--3----------3---|-2----------2---|-0----------0---|----------------|
E|-----------------|----------------|----------------|-3----------3---|


BRIDGE
======
    Bb(F)            Am(Em)           Dm7(Am7)               
e|-----------------|----------------|----------------|----------------|
B|--------1--------|-------0--------|-------1--------|-------1--------|
G|------2----------|-----0----------|-----0----------|-----0----------|
D|----3------3---3-|---2------2---2-|---2------2---2-|---2------2---2-|
A|-----------------|----------------|-0----------0---|-0----------0---|
E|--1----------1---|-0----------0---|----------------|----------------|       

    Bb(F)            Am(Em)                         
e|-----------------|----------------|
B|--------1--------|-------0--------|
G|------2----------|-----0----------| And Then
D|----3------3---3-|---2------2---2-| Straight
A|-----------------|----------------| Back in to
E|--1----------1---|-0----------0---| Chorus (F)



[F]         [Am]       [Dm7]           [C]
I know it's late now I know I ought to go
[F]          [Am]        [Dm7]                [C]
Ride in your car now but please don't drop me home
[F]          [Am]         [Dm7]         [C]
My head's so heavy, could this be all a dream?
[F]        [Am]       [Dm7]                [C]
Promise me maybes and say things you don't mean

[Bb]           [Am]              [Dm7]       [Dm7]
Rain fall from concrete coloured sky
[Bb]          [Am]
No boy, don't speak now you just
[F]    [Am]   [Dm7]          [C]
Drive, drive, drive, Take me through make me feel 
[F]    [Am]   [Dm7]            [C]
Alive, alive, When I ride with you


[F]           [Am]       [Dm7]        [C]
Keep my heart turning on axles around you
[F]           [Am]         [Dm7]           [C]
Keep our love burning just like it used to do
[F]          [Am]           [Dm7]              [C]
Now just for us, they could play our favourite tune
[F]          [Am]           [Dm7]             [C]
Let's not discuss all these things we can't undo

    [Bb]           [Am]              [Dm7]       [Dm7]
Let rain fall from concrete coloured sky
[Bb]          [Am]
No boy, don't speak now you just


[F]    [Am]   [Dm7]          [C]
Drive, drive, drive, Take me through make me feel 
[F]    [Am]   [Dm7]            [C]
Alive, alive, When I ride with you


    [Bb]           [Am]              [Dm7]      [Dm7]
Let rain fall from concrete coloured sky
[Bb]          [Am]
No boy, don't speak now you just

[Dm7]
Drive...      



Send me a note if you think I've messed it up somewhere. 


Happy Playing \m/

GP
Tap to rate this tab
 
# A B C D E F G H I J K L M N O P Q R S T U V W X Y Z