Song name
# A B C D E F G H I J K L M N O P Q R S T U V W X Y Z

Bicycle Thief - Tennis Shoes tab

 c      am    g
e|---0--------------------|
b|---8-8----5----3-3------|
g|---9-9----5----4---4----|
d|--10------7----5----(5)-|
a|--10------7----5--------|
e|------------------------|

Sun was comin' up on New Orleans

When I opened my eyes It was another perfect morning

I didn't know where I was or where I was going

For most of my life If there was a chance to fuck it up...

     f              f                    c    am    g
e|----------------8-----------8---8--|----------------------|
b|----------------9----9------9---9--|-------------3-3------|
g|------2-2-------10-----10---10-10--|--------5----4---4----|
d|--3-3-------3---10-----------------|-------------5----(5)-|
a|--3-------------8--8------8--------|--0-3--------5--------|
e|--1-------1------------------------|----------------------|


Well I did,      Yeah I did     Well I did....


     c      am    g
e|---0--------------------|
b|---8-8----5----3-3------|
g|---9-9----5----4---4----|
d|--10------7----5----(5)-|
a|--10------7----5--------|
e|------------------------|



A ridiculous existence Now I'm looking back

All kinds of thoughts come to me

But all I can think is I'm sorry


    f              f
e|----------------8-----------8---8--|
b|----------------9----9------9---9--|
g|------2-2-------10-----10---10-10--|
d|--3-3-------3---10-----------------|
a|--3-------------8--8------8--------|
e|--1-------1------------------------|

                       Well I'm sorry....

      am   b  c       f
e|--0-0-0-----------1-1-------1-1---|
b|--1-1-1--0--3-(5)-1-1-------1-1---|
g|--2-2-2--0--0-----2-2--1----1-1---|
d|--2-2-2--0--2-----3-3--3----3-3---|
a|--0-0-0--2--3-----3-3--3--3-------|
e|------------------1-1-----------1-|
repeat this 4 times....

And let the truth be known...
I've got to walk around In my own tennis shoes

The truth be known
I've had to learn to live In this world on my own

Let the truth be known
Nobody showed me How it's supposed to go

Let the truth be known
I've learned to walk around
In my own tennis shoes.....


e|--0-0-0-0-0-0-0-0-0-0-0-0-0------------------|
b|--1-1-1-0-3-s-5-3-1-3---0-0p1----------------|
g|--2-2-2-2-2-----------2-------2^---2-s--14---|
d|--2-2-2-2------------------------------------|
a|--0-0-0-0------------------------------------|
e|---------------------------------------------|


verse:
     c      am    g
e|---0--------------------|
b|---8-8----5----3-3------|
g|---9-9----5----4---4----|
d|--10------7----5----(5)-|
a|--10------7----5--------|
e|------------------------|

well Look at me now It's pretty hard to believe it
That pitiful boy You can barely see him
I don't beg nothing from no one Mow my lawn on the weekends
Just a regular guy now From the gutters of New Orleans

    f              f
e|----------------8-----------8---8--|
b|----------------9----9------9---9--|
g|------2-2-------10-----10---10-10--|
d|--3-3-------3---10-----------------|
a|--3-------------8--8------8--------|
e|--1-------1------------------------|


And I'm happy            Yeah I'm happy.....




     am   b  c       f
e|--0-0-0-----------1-1-------1-1---|
b|--1-1-1--0--3-(5)-1-1-------1-1---|
g|--2-2-2--0--0-----2-2--1----1-1---|
d|--2-2-2--0--2-----3-3--3----3-3---|
a|--0-0-0--2--3-----3-3--3--3-------|
e|------------------1-1-----------1-|
repeat this 4 times....

And let the truth be known...
I've got to walk around In my own tennis shoes

The truth be known
I've had to learn to live In this world on my own

Let the truth be known
Nobody showed me How it's supposed to go

Let the truth be known
I've learned to walk around
In my own tennis shoes.....


In the end, two guitars play different parts, i just tried to write one part down, the other
part just play some other notes, some bended. it's too much work to write that down...

e|--0-0-0-0-0-0-0-0-0-0--------0---0-------------|
b|--1-1-1-0-3-s-5-3-1-3^3----1---1----s-5-3-s-8--|
g|--2-2-2-2-2--------------2---------------------|
d|--2-2-2-2--------------------------------------|
a|--0-0-0-0--------------------------------------|
e|-----------------------------------------------|
Tap to rate this tab
# A B C D E F G H I J K L M N O P Q R S T U V W X Y Z