Song name
# A B C D E F G H I J K L M N O P Q R S T U V W X Y Z

Bicycle Thief - Offstreet Parking tab

The electric guitar intro:

e|--10p8-8-8-|--------------------------|-----------8----------------3-------3-3-|
b|---8-8-8-8-|--------------------------|-------8^---------------------3-----3-3-|
g|-----------|-----12---14p12-12-----12-|--5-7--------7-5----------4-----4---4-4-|
d|-----------|--10---10-----------10----|------------------7-s-5-----------------|
a|-----------|--------------------------|----------------------------------------|
e|-----------|--------------------------|----------------------------------------|


The chords:

    C         G       Am        F
e|--0--|   |--3--|  |--0--|  |--1--|
b|--1--|   |--3--|  |--1--|  |--1--|
g|--0--|   |--0--|  |--2--|  |--2--|
d|--2--|   |--0--|  |--2--|  |--3--|
a|--3--|   |--2--|  |--0--|  |--3--|
e|-----|   |--3--|  |-----|  |--1--|


      C                              G
Well look at you You're walking on down the street
              AM                      G
And you are finally free But you're crying
      C                            G
And look at me Well I got what I wanted
      AM               G
I am free now Not drowning
                     C                       G
But something feels wrong, Something's just terribly wrong
           AM                  G
I feel horrible I got what I wanted though
           C                     G
I can go golfing now Whenever I want
                 AM                  G
I can talk to girls But I probably won't
             C                                        G
And you can stay with your friends Tell them what an asshole I am
               AM                        G
They already believe that And now I deserve it
                         C                    G
'Cause something feels wrong Something's just terribly wrong
            AM                   G
I feel horrible I got what I wanted though


        AM                              F
And a house is not a home Even with a view And hardwood floors
                 C                  G
And all that talking And that not talking
        AM                              F
Well a house is not a home When 2 aren't 2 they're 1 and 1

             C                   G
1 and 1 is nothing 1 and 1 is nothing


       C                                      G
You called to say You wanna come and get your stuff
        AM                    G
You just wanna make sure That Im not here
        C                                             G
Well I can't believe I can't believe you're being so strong now
           AM                       G
'Cause it feels like if I Start crying I'll die
                  C                        G
Something's just wrong Something's just terribly wrong
          AM                    G
I feel horrible I got what I wanted though


        AM                              F
And a house is not a home Even with a view And hardwood floors
                 C                  G
And all that talking And that not talking yeah
        AM                              F
Well a house is not a home When 2 aren't 2 they're 1 and 1
             C                   G
1 and 1 is nothing 1 and 1 is nothing


SOLO:

There's once again two solo guitars in this solo, one begins, and then sometimes the
other one comes over the other and goes on, while the other one stops. Its very well
done, hard to write down though, but i'll do my best!
I'll write down the part that are best to hear, you will notice a note more or less
sometimes, sorry!

( ...^= bending up, " p " = pull-off, " h " = hammer-on, " -s- " = slide)


1st guitar:       2nd guitar
e|-------------|---------------------------------------------------------------|
b|-------------|---------------------------------------------------------------|
g|-------------|------------------------12---12------------------------------0-|
d|-------------|-----------------14--14---14----------------14--14--14---------|
a|--3--3-3-3-3-|--14h15-14-14h15-------------------14-14h15---15--15--15--15---|
e|-------------|---------------------------------------------------------------|

e|-----------------------------------------------------------------------------|
b|-----------------------------------------------------------------------------|
g|-----------------------------------------------------------------------------|
d|------------------------17--17--17--17--17--17--17--19--19--19--19--19--19---|
a|-15-s-17--19-s-17-s-19----19--19--19--19--19--19--19--19--19--19--19--19--19-|
e|-----------------------------------------------------------------------------|

                                                          1st guitar:
e|-------------------------------------------------------|----------|
b|--------------17--17--17----20-20-18-18-17-17-15-15-15-|--5-------|
g|-17--17--17------17--17--17----------------------------|----8^----|
d|---19--19--19------------------------------------------|----------|
a|-------------------------------------------------------|----------|
e|-------------------------------------------------------|----------|


  2nd guitar:
e|-----------------------------------------0--0--0--0------------------------------|
b|-----------------------------------------5--5--5--5--------s-15-15-15-17-17-s-20-|
g|---------------------------------7^-7^-7-7^-7^-7^-7^-7^p5--s-16-16-16-16-16------|
d|------5-5-5-5-5-5-7-7-7-7-7-7p5--------------------------------------------------|
a|--5h7----------------------------------------------------------------------------|
e|---------------------------------------------------------------------------------|

e|-------------------------0---0--0-0----------------------------------------|
b|---------------15^--15^--12-12-12-13---------------------------------------|
g|--s-12-14^-12----14---14---------------------------------------------------|
d|---------------------------------------------s-10-10-10-9-7-9-10-9-7-9-10^-|
a|-------------------------------------------7-------------------------------|
e|-------------------------------------s-7-8---------------------------------|

e|------------|
b|------------|
g|------------|
d|------------|
a|-8^-7-s-3---|
e|------------|



C                             G
Years from now Maybe outside a movie
                  AM                      G
You'll be with somebody new I'll be with somebody too
                   C
And we'll just say hello
Tap to rate this tab
# A B C D E F G H I J K L M N O P Q R S T U V W X Y Z