Guitaretab - guitar tabs
Song name
# A B C D E F G H I J K L M N O P Q R S T U V W X Y Z

Bicycle Thief - Song For A Kevin Spacey Movie tab

Chords:

Em                C            D
e|-----|       |--0--|       |--0--|
b|-----|       |--0--|       |--3--|
g|-----|       |--0--|       |--2--|
d|--2--|       |--2--|       |--0--|
a|--2--|       |--3--|       |--0--|
e|-----|       |-----|       |-----|


em           c
This is the real life
em           c
oh this the only one you'll get
em                 c
yeah, this is the real thing
em         c
this does not repeat no

d                           c
i wanna follow you in the dark (i wanna follow you)
d                               c
i"ll give up everything that i got, just to be with you
em             c
               oh just to be with you now
em             c

em           c
well i got a feeling
em              c
that this isnt good for me no
em             c
still i wanna know you
em             c
well, i wanna know what you feel like

d                          c
i wanna follow you in the dark (i wanna follow you)
d                                  c
well, i give up everything that i got,  ah just to be with you
em          c
           just to be with you now
em          c
           well, after all i know
em          c
          all i know about you
em          c

BRIDGE:
Em/     D/      C
Em/     D/      C

[ Tab from: http://www.guitaretab.com/b/bicycle-thief/94651.html ]
SOLO:
e|-----------------------------------------|
b|-----------------------------------------|
g|--12-11----12-11----12-11----------------|
d|--------9--------------------------------|
a|-----------------12--------10-10-10--10--|
e|-----------------------------------------|

e|----------------------------------------------------------------|
b|----------------------------------------------------------------|
g|--12-11----12-11------------------------------------------------|
d|--------9-------------------------------------------------------|
a|-----------------12^---10----9-s-10-s-9-s-10-s-12-12--14--------|
e|----------------------------------------------------------------|




em                 c
well, time doesnt heal wounds
em         c
time only covers 'em up now
em           c
promise me, promise me
em             c
a promise you cannot keep no


d                          c
i wanna follow you in the dark (i wanna follow you)
d                                  c
well, i give up everything that i got,  ah just to be with you
em          c
           just to be with you now
em          c
           well, after all i know
em          c
          well after all i know no
em          c
           after all i know (just to be with you)
em          c
           after all i know  (just to be with you)
em        c

em            c                      em       c
it gonna be scary, but it's gonna be good, i hope it
em            c                      em       c
it gonna be scary, but it's gonna be good, i hope it
Related for Song For A Kevin Spacey Movie tab