Song name
# A B C D E F G H I J K L M N O P Q R S T U V W X Y Z

Bif Naked - Everything tab

BIF NAKED
Everything

[verse]
	A5	B5	D5	A5
E|--------------------------------------------------------|
B|--------------------------------------------------------|
G|----------------------------------7---------------------|
D|----------7----------9-----------7-----------7----------|
A|----------7----------9-----------5-----------7----------|
E|-----------5----------7-----------------------5---------|

[chorus]
	E5		D5		E5
E|----------------------------------------------------------------------------|
B|----------------------------------------------------------------------------|
G|----------9------------------------7-----------------------9----------------|
D|----------9------------------------7-----------------------9----------------|
A|----------7------------------------5-----------------------7----------------|
E|----------------------------------------------------------------------------|

[fill 1]
E|------------------------------------------------------------------------------------------------------------------------------B|------------------------------------------------------------------------------------------------------------------------------G|--1h2--2--2-----2--2--2--1h2--2---2------2--2--2--1h2--2--2------2--2--2--1h--2--2----2--2p1-----------------D|-----------------------------------------------------------------------------------------------------------------------------A|-----------------------------------------------------------------------------------------------------------------------------E|------------------------------------------------------------------------------------------------------------------------------

[fill2]
E|------------------------------------------------------------------------------------------------------------------------------B|------------------------------------------------------------------------------------------------------------------------------G|-----------------------------------------------------------------------------------------------------------------------------D|----------------------------------------------------------------------------------------7--7--7--7--7--7--7--7-----------A|-----------------------------------------------------------5--5--5--5--5--5--5--5---------------------------------------E|---5--5--5--5--5--5--5--5--7--7--7--7--7--7--7--7---------------------------------------------------------------------
Tap to rate this tab
# A B C D E F G H I J K L M N O P Q R S T U V W X Y Z