Song name
# A B C D E F G H I J K L M N O P Q R S T U V W X Y Z

Bif Naked - October Song tab

October Song by Bif Naked
Guitarist: Doug Fury
Album: Purge
Dif.: 7
Tabbed by TWIGGy5

NOTE: * = strum 8x

Verse (If I fall out of)
E|--------7-------3-------5-------0--
B|--------7-------3-------5-------0--
G|-8------8-------4-------6-------1--
D|-9-9-9--9--5-5--5--7-7--7--2-2--2--
A|-9-9-9--9--5-5--5--7-7--7--2-2--2--
E|-7-7-7--7--3-3--3--5-5--5--0-0--0--

Verse (cont.)
E|------7-------3-------5-------5--|
B|------7-------3-------5-------5--|
G|------8-------4-------6-------6--|
D|-9-9--9--5-5--5--7-7--7--7-7--7--|
A|-9-9--9--5-5--5--7-7--7--7-7--7--|
E|-7-7--7--3-3--3--5-5--5--5-5--5--|

Verse P2 (If Im in over my..)
E|------7-------3-------5-------0--
B|------7-------3-------5-------0--
G|------8-------4-------6-------1--
D|-9-9--9--5-5--5--7-7--7--2-2--2--
A|-9-9--9--5-5--5--7-7--7--2-2--2--
E|-7-7--7--3-3--3--5-5--5--0-0--0--

Verse P2 (cont.)
E|------7-------3-------5-------5--|
B|------7-------3-------5-------5--|
G|------8-------4-------6-------6--|
D|-9-9--9--5-5--5--7-7--7--7-7--7--|
A|-9-9--9--5-5--5--7-7--7--7-7--7--|
E|-7-7--7--3-3--3--5-5--5--5-5--5--|

Pre-Chorus (Its cold baby)
E|-9--9--5-5-5-5--7--7--2-2-2-2--9--9--5-5-5-5------|
B|-9--9--5-5-5-5--7--7--2-2-2-2--9--9--5-5-5-5------|
G|-8--8--6-6-6-6--6--6--1-1-1-1--8--8--6-6-6-6------|
D|-9--9--5-5-5-5--7--7--2-2-2-2--9--9--5-5-5-5--7*--|
A|-9--9--5-5-5-5--7--7--2-2-2-2--9--9--5-5-5-5--7*--|
E|-7--7--3-3-3-3--5--5--0-0-0-0--7--7--3-3-3-3--5*--|

Chorus (.Lonely October song..)
G|-6--6--6--6--8--8-4--4-4-4------7--7--7--7--6--6--4-4-4-4-|
D|-7--7--7--7--9--9-5--5-5-5------7--7--7--7--7--7--5-5-5-5-|
A|-7--7--7--7--9--9-5--5-5-5--55--5--5--5--5--7--7--5-5-5-5-|
E|-5--5--5--5--7--7-3--3-3-3--33--------------5--5--3-3-3-3-|

Post-Chorus/Outro 2 (I cant seem to)
G|------8---------6---7-7-7---------6-|-%-|-------|
D|-9-9--9--5--5-5-5---7-7-7--7--7-7-7-|-%-|-5-----|
A|-9-9--9--5--5-5-5---5-5-5--7--7-7-7-|-%-|-5-----|
E|-7-7--7--3--3-3-3----------5--5-5-5-|-%-|-3-----|
                                   Let ring ^

Bass Fill (BASS) (A crispy leaf.)
A|-5--------5----|
E|---5--3-----5--|

Verse 2 (If Im blind and lose.)
E|------7-------3-------5-------0--
B|------7-------3-------5-------0--
G|------8-------4-------6-------0--
D|-9-9--9--5-5--5--7-7--7-------1--
A|-9-9--9--5-5--5--7-7--7--X\\--2--
E|-7-7--7--3-3--3--5-5--5--X\\--0--
                           ^ just slide your fret hand across strings

Verse 2 (cont.)
E|------7-------3-------5-------5--|
B|------7-------3-------5-------5--|
G|------8-------4-------6-------6--|
D|-9-9--9--5-5--5--7-7--7--7-7--7--|
A|-9-9--9--5-5--5--7-7--7--7-7--7--|
E|-7-7--7--3-3--3--5-5--5--5-5--5--|

Bridge (And if I..)
E|--------8--------4---------11-------6--|
B|--------8--------4---------11-------6--|
G|-9--9---9---5--5-5--10-10--10--7--7-7--|
D|-10-10--10--6--6-6--12-12--12--8--8-8--|
A|-10-10--10--6--6-6--12-12--12--8--8-8--|
E|-8--8---8---4--4-4--11-11--11--6--6-6--|

Outro (I cant seem..)
G|------8---------6---7-7-7---------6-|-%-|-%-|
D|-9-9--9--5--5-5-5---7-7-7--7--7-7-7-|-%-|-%-|
A|-9-9--9--5--5-5-5---5-5-5--7--7-7-7-|-%-|-%-|
E|-7-7--7--3--3-3-3----------5--5-5-5-|-%-|-%-|

Outro (cont.)
G|------------------------------------7--7-------|
D|-5-5--5-5--7-7--5-5--5-5--7-7--7-7--7--7-7--7--|
A|-5-5--5-5--7-7--5-5--5-5--7-7--7-7--5--5-7--7--|
E|-3-3--3-3--5-5--3-3--3-3--5-5--5-5-------5--5--|

End (Very Softly;Arppegiate)
B|--6--|
G|--7--|
D|--8--|
A|--8--|
E|--6--|

Song Structure: -
Verse
Verse P2
Pre-Chorus
Chorus
Post-Chorus
Bass Fill
Verse 2
Pre-Chorus
Chorus
Post-Chorus
Bass Fill
Keyboard Bass N Drums!!! (If I fall out.)
Bridge (w/ Im cold baby in the background)
Outro
Outro P2
End

Okay there you go. I dont know wahts up with the 
person that did this song before, but this is better,
 so enjoy. I dont know if its the right rhythm, 
cause I hate writing the rhythm its so annoying. 
But its definitely the right chords. So enjoy. If you have any comments, 
corrections or suggestions or dare I even say, requests email me at toxic345x@yahoo.ca
===========Bif Naked - October Song
Submitted By: Kate Pike
EMail: klpike@mail.com
Album: Purge


Intro
Verse 
E|7-7-7--3-3-3--5--0--7--3-5----|> 
a|----9------5--7--2--9--5-7----|> 
d|----9------5--7--2--9--5-7----|> 
g|------------------------------|>
b|------------------------------|>
e|------------------------------|>
(Play above during verses:)
V1
If I fall I am honest, will you pick me up wll you help me fly
If I fall i am honest, will you shoe me love
If im in over my head, will pick me up will you help me out
If im in over my head, will you show me love
Its cold baby, its cold baby, i need your love
to get me through this time 


E|--5--7--3------5---3--
a|--7--9--5---5--7---5--
d|--7--9--5---7--7---5--
g|------------7---------
b|----------------------
e|----------------------
(play above DURING this)
Lonley october song, i am a bleeding heart
Lonley october song, helpme im falling apart

E|--7--3------5---|-7--3----5--7--3--5----5-3--
a|--9--5---5--7---|-9--5--5-7--9--5--7--5-7-5--
d|--9--5---7--7---|-9--5--7-7--9--5--7--7-7-5--
g|---------7------|-------7-------------7------
b|----------------|----------------------------
e|----------------|----------------------------
(play during chorus)
I can't seem to find anyone
Who hasnt fallen fallen down
I can't seem to find anyone I like
E|----5--3----5---
a|-5--7--5--5-7---
d|-7--7--5--7-7---
g|-7--------7-----
b|----------------
e|----------------
A crispy leaf on the ground,there are leaves all around

(p[lay verse agian)
If Im blind and its my way, will you walk with me, will you help me see
If Im blind and its my way, will you show me love
Ifim incarcerated will you bust me out, will you set me free
If im incarcerated, will you show me love
Its cold Baby, Its cold Baby
I need your love to get me through this time

Lonley october song i am a bleeding heart
Lonley october song, help me im falling apart

(chorus)


This is the bridge part or what not. 
E|-8---4----6---
a|-10--6--6-8---
d|-10--6--8-8---
g|--------8-----
b|--------------
e|--------------
If I fall and im honest,
and if im in over my head,
If Im blind and its my way
If Im incarerated

If I fall and im honest
If im in over my head
if in blind and its my way
if im incarcertated

Chorus

-Enjoy :)

Any suggestions, Death threats, notes of gratitude..juss send em here: klpike@mail.com
Tap to rate this tab
 
# A B C D E F G H I J K L M N O P Q R S T U V W X Y Z