Guitaretab - guitar tabs
Song name
# A B C D E F G H I J K L M N O P Q R S T U V W X Y Z

Biffy Clyro - Diary Of Always tab

Diary Of Always
Biffy Tab Team

*Guitar starts at 1.14

Verse 1

e]---------2------------|
b]------------3---------|
g]-----4----------------|
d]-0/2---2--------------|
a]----------------------|
d]----------------------|

e]----------3-----------|
b]-------------3--------|
g]----0-----------------|
d]-0-----0--------------|
a]----------------------|
d]----------------------|

e]----------3-----------|
b]-------------3--------|
g]-----0----------------|
d]-------0--------------|
a]--3-------------------| x2
d]----------------------|

Repeat

e]-----------*-------|
b]---------*---------|
g]-------*--play-----|
d]-----*--string-----|
a]---*---before-nut--|
d]-*-----------------|

Verse 2

e]-------------------|
b]-------0--1--3-----|
g]----0--------------|
d]-0-----------------|
a]-------------------| x2
d]-------------------|

e]------------------------|
b]------------12--12--13--|
g]--------12--------------|
d]----12------------------|
a]10----------------------| x2
d]------------------------|

Repeat

e]-------------------|
b]-------0--1--3-----|
g]----0--------------|
d]-0-----------------|
a]-------------------| x2
d]-------------------|
[ Tab from: http://www.guitaretab.com/b/biffy-clyro/108659.html ]
e]-----------5-----------|
b]--------------3--------|
g]--------0--------------|
d]-----0-----------------|
a]-----------------------| x2
d]--5--------------------|

e]---------2------------|
b]------------3---------|
g]-----4----------------|
d]-0/2---2--------------|
a]----------------------|
d]----------------------|

e]----------3-----------|
b]-------------3--------|
g]----0-----------------|
d]-0-----0--------------|
a]----------------------|
d]----------------------|

e]----------3-----------|
b]-------------3--------|
g]-----0----------------|
d]-------0--------------|
a]--3-------------------|
d]----------------------|

e]-----------*-------|
b]---------*---------|
g]-------*--play-----|
d]-----*--string-----|
a]---*---before-nut--|
d]-*-----------------|

Repeat Verse 1

Ending

e]---------2------------|
b]------------3---------|
g]-----4----------------|
d]-0/2---2--------------|
a]----------------------|
d]----------------------|

e]----------3-----------|
b]-------------3--------|
g]----0-----------------|
d]-0-----0--------------|
a]----------------------|
d]----------------------|

e]-3-3-3-3-3-3-3-3-3-3-3--|
b]-3-3-3-3-3-3-3-3-3-3-3--|
g]-0-0-0-0-0-0-0-0-0-0-0--|
d]------------------------|
a]-3-3-3-3-3-3-3-3-3-3-3--|
d]------------------------|

e]-----------*-------|
b]---------*---------|
g]-------*--play-----|
d]-----*--string-----|
a]---*---before-nut--|
d]-*-----------------|

Related for Diary Of Always tab
Advertisement will be closed in 10 seconds