Song name
# A B C D E F G H I J K L M N O P Q R S T U V W X Y Z

Biffy Clyro - Joy Discovery Invention Live tab

Biffy Clyro - Joy.Discover.Invention.

Awesome song, proof they always had it!
Anyways, this is a simple layout, I haven't included the strumming in most parts, but 
easy enough to figure out by listening to the song.
Used youtube videos of live performances to tab this one, so it should be all the 
Correction welcome. Enjoy.

http://uk.youtube.com/watch?v=S2FTQdN66io

Verse
e|---------------------------------------|
B|---------------------------------------|
G|-------------------------4--------4----| x3
D|-------9-------9-----------5--------5--|
A|-----7-------7------------------3------|
E|---0-------9----------3----------------|

Break
e|------------------------------------------------|
B|------------------------------------------------|
G|------------------------------------------------| x2
D|---7/9--7/9--7/11--\7-----12----12----12----12--|
A|---5/7--5/7--5/-9--\5-----10----10----10----10--|
E|---------------------------8-----0-----8-----0--|

Verse
e|-------------------------------------------|
B|----------------------------------------*--|
G|-------------------------4--------4---(5)--| x5
D|-------9-------9-----------5--------5------|     *last time.
A|-----7-------7------------------3----------|
E|---0-------9----------3--------------------|

Break
e|------------------------------------------------|
B|------------------------------------------------|
G|------------------------------------------------| x2
D|---7/9--7/9--7/11--\7-----12----12----12----12--|
A|---5/7--5/7--5/-9--\5-----10----10----10----10--|
E|---------------------------8----0------8-----0--|

Bridge
e|------------------|
B|------------------|
G|---121212-x-1111--| x1
D|----x-x-x-x--x-x--|
A|---101010-x--9-9--|
E|------------------|
                                                          *
e|-------------------------------------------------|     |-----|
B|---*---------------------------------------------|     |-----| Live Simon often
G|---2/44-444-/-99-1212-------------12-12-x-11-11--| x4  |-14/-| substitutes the A
D|---2/44-444-/-99-1212---4/55-555---x--x-x--x--x--|     |--x--| with this slide
A|---0/22-222-/-77-1010---2/33-333--10-10-x--9--9--|     |-12/-| after the 1st time.
E|-------------------------------------------------|     |-----|


Chorus
e|---3----3---------------|--------------------|
B|---3----3---------------|--------------------|
G|---0----0---------------| -------------------| x2
D|---0----0------12---12--|--12--12---12---12--|
A|-\-x----x------9----10--|--10--10---10---10--|
E|-\-3----2---------------|---8---0----8----0--|


Bridge
e|------------------|
B|------------------|
G|---121212-x-1111--| x1
D|----x-x-x-x--x-x--|
A|---101010-x--9-9--|
E|------------------|
                                                          *
e|-------------------------------------------------|     |-----|
B|---*---------------------------------------------|     |-----|
G|---2/44-444-/-99-1212-------------12-12-x-11-11--| x4  |-14/-|
D|---2/44-444-/-99-1212---4/55-555---x--x-x--x--x--|     |--x--|
A|---0/22-222-/-77-1010---2/33-333--10-10-x--9--9--|     |-12/-|
E|-------------------------------------------------|     |-----|

Outro
e|------------------------------------------|
B|------------------------------------------|
G|------------------------------------------|
D|-------------12---12---12---12---12---12~-|
A|---5----5-----9---10---10---10---10---10~-|
E|---3----2---------------8----0----8----0~-|


Note.
The first two chords in the chorus can be switched with powerchord versions.
D|-------|
A|-5--5--| I've watched videos and seen him play both types.
E|-3--2--|

There you go. Alex B.
Tap to rate this tab
# A B C D E F G H I J K L M N O P Q R S T U V W X Y Z