Song name
# A B C D E F G H I J K L M N O P Q R S T U V W X Y Z

Biffy Clyro - Umbrella tab

Highlighted       Show chord diagrams
-------------------------------------------------------------------------------
			     Umbrella - Biffy Clyro
-------------------------------------------------------------------------------
Tabbed by: Gareth Emanuel
Email: gareth.emanuel@btinternet.com

Tuning: Drop D

e|-3--2--3--2--------------------------------------------------------------------|
B|-5--5--5--5-----strum letting them ring ----------------------------| 
G|-4--4--4--4--------------------------------------------------------------------|
D|-2--2--2--2--------------------------------------------------------------------|
A|-x--x--x--x--------------------------------------------------------------------|
D|-x--x--x--x--------------------------------------------------------------------|

Chorus
   C  G  Dsus2 Em
e|-0--5----0---0--------------------------------------------------------------------|
B|-1--0----3---0--------------------------------------------------------------------|
G|-0--0----2---0--------------------------------------------------------------------|
D|-2--0----0---2--------------------------------------------------------------------|
A|-3--x----0---2--------------------------------------------------------------------|
D|-x--5----0---x--------------------------------------------------------------------|

Bridge        (Chord Progression: F C G    F C Em)

   F  C  G  Em
e|-1--0--5--0--------------------------------------------------------------------|
B|-1--1--0--0--------------------------------------------------------------------|
G|-2--0--0--0--------------------------------------------------------------------|
D|-3--2--0--2--------------------------------------------------------------------|
A|-3--3--x--2--------------------------------------------------------------------|
E|-x--x--5--x--------------------------------------------------------------------|


| /  slide up
| \  slide down
| h  hammer-on
| p  pull-off
| ~  vibrato
| +  harmonic
| x  Mute note
===============================================================================
Tap to rate this tab
# A B C D E F G H I J K L M N O P Q R S T U V W X Y Z