Song name
# A B C D E F G H I J K L M N O P Q R S T U V W X Y Z

Biffy Clyro - The Conversation Is tab

----------------------------------------------------------------------------
			     The Conversation Is - Biffy Clyro
----------------------------------------------------------------------------
Album: Puzzle
Tabbed by: Adam0209M
Email: Adam_mnghn@hotmail.com

Tuning: DADGBE (Dropped D)

Intro
E|-------------------------------------------------------------------------|
B|-------------------------------------------------------------------------|
G|-----------------------3-3-3-3-3-3-3-3-3-3-------------------------------|
D|-0-0-0-0-0-0-0-0-0-0---3-3-3-3-3-3-3-3-3-3------x2-----------------------|
A|-0-0-0-0-0-0-0-0-0-0---1-1-1-1-1-1-1-1-1-1-------------------------------|
D|-0-0-0-0-0-0-0-0-0-0-----------------------------------------------------|







Verse
E|-6--6----8--------------6--6----8-|
B|-4--4----6--------------4--4----6-|
G|-5--5----7--------------5--5----7-|
D|-0--0----0-strum chords-5--5----5-|
A|-----------and-fingerpick---------|
D|------------randomly--------------|

I wander streets at night and hope to god to see your face
The fluorescent billboards sell a wonderful life that doesn't exist anymore...





Pre-Chorus
E|-------------------------------------------------------------------------|
B|-------------------------------------------------------------------------|
G|--------------------------------------------------------------------5----|
D|--------------------------------------------------------------------5-x16|
A|-5-5-3-5--3--5--3--5\3--1-1-0-1--0--1--0-1\0------------------------3----|
D|----------------------------------------------5-5-3-5--3--5--3--5\3------|

The conversation is...          The conversation is...             over...




Chorus
E|-------------------------------------------------------------------------|
B|-------------------------------------------------------------------------|
G|------------------5-5-5-5-5-5-5-5--7-7-7-7-7-7-7-7-8--8--8--8--8--8--8--8|
D|-3-3-3-3-3-3-3-3--5-5-5-5-5-5-5-5--7-7-7-7-7-7-7-7-8--8--8--8--8--8--8--8|
A|-3-3-3-3-3-3-3-3--3-3-3-3-3-3-3-3--5-5-5-5-5-5-5-5-6--6--6--6--6--6--6--6|
D|-3-3-3-3-3-3-3-3---------------------------------------------------------|

What will I do if I'm wrong...        Will I blame it on everyone...

E|-----------------------------------------------------|
B|-----------------------------------------------------|
G|------------------5-5-5-5-5-5-5-5--3-3-3-3-3-3-3-3---|
D|-3-3-3-3-3-3-3-3--5-5-5-5-5-5-5-5--1-1-1-1-1-1-1-1---|
A|-3-3-3-3-3-3-3-3--3-3-3-3-3-3-3-3--1-1-1-1-1-1-1-1---|
D|-3-3-3-3-3-3-3-3-------------------1-1-1-1-1-1-1-1---|

It's like I always do...          So I'm a coward because of you...




Verse
E|-6--6----8--------------6--6----8-|
B|-4--4----6--------------4--4----6-|
G|-5--5----7--------------5--5----7-|
D|-0--0----0-strum chords-5--5----5-|
A|-----------and-fingerpick---------|
D|------------randomly--------------|

Are pills the only way to make myself complete again
They become the only way to a wonderful life with a happy ending...





Pre-Chorus
E|-------------------------------------------------------------------------|
B|-------------------------------------------------------------------------|
G|--------------------------------------------------------------------5----|
D|--------------------------------------------------------------------5-x16|
A|-5-5-3-5--3--5--3--5\3--1-1-0-1--0--1--0-1\0------------------------3----|
D|----------------------------------------------5-5-3-5--3--5--3--5\3------|

The conversation is...           The conversation is...       over.......




Chorus
E|-------------------------------------------------------------------------|
B|-------------------------------------------------------------------------|
G|------------------5-5-5-5-5-5-5-5--7-7-7-7-7-7-7-7-8--8--8--8--8--8--8--8|
D|-3-3-3-3-3-3-3-3--5-5-5-5-5-5-5-5--7-7-7-7-7-7-7-7-8--8--8--8--8--8--8--8|
A|-3-3-3-3-3-3-3-3--3-3-3-3-3-3-3-3--5-5-5-5-5-5-5-5-6--6--6--6--6--6--6--6|
D|-3-3-3-3-3-3-3-3---------------------------------------------------------|

What will I do if I'm wrong...        Will I blame it on everyone...

E|-----------------------------------------------------|
B|-----------------------------------------------------|
G|------------------5-5-5-5-5-5-5-5--3-3-3-3-3-3-3-3---|
D|-3-3-3-3-3-3-3-3--5-5-5-5-5-5-5-5--1-1-1-1-1-1-1-1---|
A|-3-3-3-3-3-3-3-3--3-3-3-3-3-3-3-3--1-1-1-1-1-1-1-1---|
D|-3-3-3-3-3-3-3-3-------------------1-1-1-1-1-1-1-1---|

It's like I always do...          So I'm a coward because of you...

Chorus
E|-------------------------------------------------------------------------|
B|-------------------------------------------------------------------------|
G|------------------5-5-5-5-5-5-5-5--7-7-7-7-7-7-7-7-8--8--8--8--8--8--8--8|
D|-3-3-3-3-3-3-3-3--5-5-5-5-5-5-5-5--7-7-7-7-7-7-7-7-8--8--8--8--8--8--8--8|
A|-3-3-3-3-3-3-3-3--3-3-3-3-3-3-3-3--5-5-5-5-5-5-5-5-6--6--6--6--6--6--6--6|
D|-3-3-3-3-3-3-3-3---------------------------------------------------------|

I'm finding it hard to explain...        why I think that I'm right again...

E|-----------------------------------------------------|
B|-----------------------------------------------------|
G|------------------5-5-5-5-5-5-5-5--3-3-3-3-3-3-3-3---|
D|-3-3-3-3-3-3-3-3--5-5-5-5-5-5-5-5--1-1-1-1-1-1-1-1---|
A|-3-3-3-3-3-3-3-3--3-3-3-3-3-3-3-3--1-1-1-1-1-1-1-1---|
D|-3-3-3-3-3-3-3-3-------------------1-1-1-1-1-1-1-1---|

I'd love someone else to blame...          So I'm a coward because of you...




Middle
E|-----------------------------------------------------|
B|-----------------------------------------------------|
G|-----------------------------------------------------|
D|-----8-8-8-8-8-8-8-8-0-0-0-0-0-0-0-0-7-7-7-7-7-7-7-7-|
A|-----8-8-8-8-8-8-8-8-0-0-0-0-0-0-0-0-7-7-7-7-7-7-7-7-|
D|-----8-8-8-8-8-8-8-8-0-0-0-0-0-0-0-0-7-7-7-7-7-7-7-7-|
And then you try to understand... what it takes to be a man...

Middle
E|------------------------------------------------------------------|
B|------------------------------------------------------------------|
G|------------------------------------------------------------------|
D|5-5-5-5-5-5-5-5-8-8-8-8-8-8-8-8-0-0-0-0-0-0-0-5-5-5-5-5-5-5-5-----|
A|5-5-5-5-5-5-5-5-8-8-8-8-8-8-8-8-0-0-0-0-0-0-0-5-5-5-5-5-5-5-5-----|
E|7-7-7-7-7-7-7-7-8-8-8-8-8-8-8-8-0-0-0-0-0-0-0-5-5-5-5-5-5-5-5-----|
And then you look into your hearts... it defines you...

E|-------------------------------------------------------------------------|
B|-------------------------------------------------------------------------|
G|----------3-3-3-3-----------5-5-5-5-----------3-3-3-3-----------5-5-5-5--|
D|-0-0-0-0--3-3-3-3--5-5-5-5--5-5-5-5--0-0-0-0--3-3-3-3--5-5-5-5--5-5-5-5--|
A|-0-0-0-0--1-1-1-1--5-5-5-5--3-3-3-3--0-0-0-0--1-1-1-1--5-5-5-5--3-3-3-3--|
D|-0-0-0-0-----------5-5-5-5-----------0-0-0-0-----------5-5-5-5-----------|



Verse
E|-6--6----8--------------6--6----8-|
B|-4--4----6--------------4--4----6-|
G|-5--5----7--------------5--5----7-|
D|-0--0----0-strum chords-5--5----5-|
A|-----------and-fingerpick---------|
D|------------randomly--------------|



Chorus
E|-------------------------------------------------------------------------|
B|-------------------------------------------------------------------------|
G|------------------5-5-5-5-5-5-5-5--7-7-7-7-7-7-7-7-8--8--8--8--8--8--8--8|
D|-3-3-3-3-3-3-3-3--5-5-5-5-5-5-5-5--7-7-7-7-7-7-7-7-8--8--8--8--8--8--8--8|
A|-3-3-3-3-3-3-3-3--3-3-3-3-3-3-3-3--5-5-5-5-5-5-5-5-6--6--6--6--6--6--6--6|
D|-3-3-3-3-3-3-3-3---------------------------------------------------------|

E|-----------------------------------------------------|
B|-----------------------------------------------------|
G|------------------5-5-5-5-5-5-5-5--3-3-3-3-3-3-3-3---|
D|-3-3-3-3-3-3-3-3--5-5-5-5-5-5-5-5--1-1-1-1-1-1-1-1---|
A|-3-3-3-3-3-3-3-3--3-3-3-3-3-3-3-3--1-1-1-1-1-1-1-1---|
D|-3-3-3-3-3-3-3-3-------------------1-1-1-1-1-1-1-1---|


Middle
E|-------------------------------------------------------------------|
B|-------------------------------------------------------------------|
G|-------------------------------------------------------------------|
D|-8-8-8-8--0-0-0-0--7-7-7-7--5-5-5-5--8-8-8-8--0-0-0-0--5-5-5-5-----| X2
A|-8-8-8-8--0-0-0-0--7-7-7-7--5-5-5-5--8-8-8-8--0-0-0-0--5-5-5-5-----|
D|-8-8-8-8--0-0-0-0--7-7-7-7--7-7-7-7--8-8-8-8--0-0-0-0--5-5-5-5-----|


Outro
E|---------------------------------------------------------------|
B|---------------------------------------------------------------|
G|---------------------------------------------------------------|
D|---------------------------------------------------------------|
A|-5-5-3-5--3-5--3-5---5-5-3-5-------5-5-3-5--3-5--3-5---5-5-3-5-|
D|-------------------------------?-------------------------------|





| /  slide up
| \  slide down
| h  hammer-on
| p  pull-off
| ~  vibrato
| +  harmonic
| x  Mute note
===============================================================================


*Lyrics*

I wander streets at night and hope to god to see your face
The fluorescent billboards sell a wonderful life that doesn't exist anymore
The conversation is
The conversation is over

What will I do if I'm wrong
Will I blame it on everyone
It's like I always do
So I'm a coward because of you

Are pills the only way to make myself complete again
They become the only way to a wonderful life with a happy ending
The conversation is
The conversation is over

What will I do if I'm wrong
Will I blame it on everyone
It's like I always do
I'm a coward because of you
I'm finding it hard to explain why I think that I'm right again
I'd love someone else to blame so I'm a coward because of you
And then you try to understand what it takes to be a man
And then you look into your hearts it defines you

What will I do if I'm wrong
Will I blame it on everyone
It's like I always do
I'm a coward because of you
I'm finding it hard to explain why I think that I'm right again
I'd love someone else to blame so I'm a coward because of you
And then you try to understand what it takes to be a man
And then you look into your hearts it defines you

The conversation is over
The conversation is over
Tap to rate this tab
 
# A B C D E F G H I J K L M N O P Q R S T U V W X Y Z