Song name
# A B C D E F G H I J K L M N O P Q R S T U V W X Y Z

Biffy Clyro - Toys Toys Toys Choke Toys Toys Toys tab

Song: Toys Toys Toys Choke Toys Toys Toys
Artist: Biffy Clyro
Album: The Vertigo of Bliss

Tuning: Drop D

INTRO
E|----------------------------------------------------------------------|
B|----------------------------------------------------------------------|
G|--------------------------------------------------5-5-------5~--------|
D|--7-7-7-7-7-7-7-7-7-7-7-7-7-7-7-7-3-3-3-3-3-3-3-3-5-5--5-5--3~--------|
A|--7-7-7-7-7-7-7-7-7-7-7-7-7-7-7-7-3-3-3-3-3-3-3-3-3-3--5-5--3~--------|
D|--7-7-7-7-7-7-7-7-0-0-0-0-0-0-0-0-3-3-3-3-3-3-3-3------5-5--3~--------|
    PM---------------------------------------------

PART 1
(Repeat INTRO twice)

PART 2
E|--------------------------------------------------------------------|
B|--------------------------------------------------------------------|
G|-----------9------9-----------10------10-------------12--------12---|
D|------0--0----0-0--------8--8-----8-8---------10--10-----10-10------|
A|--------------------------------------------------------------------|
D|--------------------------------------------------------------------|

E|------------------------------------------------------|
B|------------------------------------------------------|
G|--------9--------9\7------10------10------7------7\6--|
D|--10-10----10-10------8-8-----8-8-----8-8----8-8------|
A|------------------------------------------------------|
D|------------------------------------------------------|

INSTRUMENTAL 1
(Repeat INTRO)

(Repeat PART 1)

(Repeat PART 2)

PART 3
E|----------------------|
B|----------------------|
G|-------------10~------|
D|--5-5-5-0--0----------|
A|--5-5-5-0--0----------|
D|--5-5-5-0--0----------|x2

PART 4
E|----------------------------------------------------------------------|
B|----------------------------------------------------------------------|
G|------------------------------------9--9-9--9-9-9--9-9-9--9-9-9-------|
D|--5-5-5-7--7-7--7-7-7--7-7-7--7-7-7-7--7-7--7-7-7--7-7-7--7-7-7--0~---|
A|--5-5-5-7--7-7--7-7-7--7-7-7--7-7-7-7--7-7--7-7-7--7-7-7--7-7-7--0~---|
D|--5-5-5-7--7-7--7-7-7--7-7-7--7-7-7-0--0-0--0-0-0--0-0-0--0-0-0--0~---|

(In the next part you pre-bend 9th fret on the G-string up half a tone then release it.)
E|----------------------------------------------------------------------|
B|----------------------------------------------------------------------|
G|-----------------------------10b9-10b9-10b9-10b9-10b9-10b9-10b9-10b9--|
D|--3---3-3-3-5---5-5--5-5-5-5------------------------------------------|
A|--3---3-3-3-5---5-5--5-5-5-5------------------------------------------|
D|--3---3-3-3-5---5-5--5-5-5-5------------------------------------------|

E|--------------------------------------------------------------------|
B|---=----------------------------------------------------------------|
G|------9------9------9------9----------------------------------------|
D|--0h7----0h7----0h7----0h7----0~--------3---3-3-3-3---3-3--3-3-3-3--|
A|------------------------------0~--------3---3-3-3-3---3-3--3-3-3-3--|
D|------------------------------0~--------3---3-3-3-3---3-3--3-3-3-3--|

PART 5
E|---------------------------------------------------|
B|---------------------------------------------------|
G|--2----2---2--2-2--2--2-2-5----5---5--5-5--5--5-5--|
D|--0----0---0--0-0--0--0-0-3----3---3--3-3--3--3-3--|
A|--0----0---0--0-0--0--0-0-3----3---3--3-3--3--3-3--|
D|--0----0---0--0-0--0--0-0-3----3---3--3-3--3--3-3--|

E|-----------------------------------------------------------------|
B|-----------------------------------------------------------------|
G|--12----12---12--12-12--12--12-12-9--9-9-9-9-9--9-9-9-9-9~-------|
D|--10----10---10--10-10--10--10-10-7--7-7-7-7-7--7-7-7-7-7~-------|
A|--10----10---10--10-10--10--10-10-7--7-7-7-7-7--7-7-7-7-7~-------|
D|--10----10---10--10-10--10--10-10-7--7-7-7-7-7--7-7-7-7-0~-------|x2

INSTRUMENTAL 2
E|---------------------------------------------------|
B|--15-15-15-15-15-15-15-15-15-15-15-15-15-15-15-15--|
G|--14-14-14-14-14-14-14-14-14-14-14-14-14-14-14-14--|
D|---------------------------------------------------|
A|---------------------------------------------------|
D|---------------------------------------------------|

E|--------------------------------------------------|
B|--15-17-17-17-17-17-17-17-17-17-17-17-17-17-17-0--|
G|--14-14-14-14-14-14-14-14-14-14-14-14-14-14-14-0--|
D|--------------------------------------------------|
A|--------------------------------------------------|
D|--------------------------------------------------|

E|-----------------------------------------------0--|
B|--13-13-13-13-13-13-13-13-13-13-13-13-13-13-13-0--|
G|--14-14-14-14-14-14-14-14-14-14-14-14-14-14-14----|
D|--------------------------------------------------|
A|--------------------------------------------------|
D|--------------------------------------------------|

E|---------------------------------------------------|
B|-----11----11----11----11----11----11----11----11--|
G|--14----14----14----14----14----14----14----14-----|
D|---------------------------------------------------|
A|---------------------------------------------------|
D|---------------------------------------------------|x2

E|---------------------------------------------------|
B|--15-15-15-15-15-15-15-15-15-15-15-15-15-15-15-15--|
G|--14-14-14-14-14-14-14-14-14-14-14-14-14-14-14-14--|
D|---------------------------------------------------|
A|---------------------------------------------------|
D|---------------------------------------------------|

E|--------------------------------------------------|
B|--15-17-17-17-17-17-17-17-17-17-17-17-17-17-17-0--|
G|--14-14-14-14-14-14-14-14-14-14-14-14-14-14-14-0--|
D|--------------------------------------------------|
A|--------------------------------------------------|
D|--------------------------------------------------|

E|--------15-------15-------15-------15-------15-----|
B|-----13-------13-------13-------13--------13---13--|
G|--15-------15-------15-------15--------15----------|
D|---------------------------------------------------|
A|---------------------------------------------------|
D|---------------------------------------------------|

E|--------12-------13-------12-------13-------12--|
B|-----11-------11-------11-------11--------11----|
G|--14-------14-------14-------14--------14-------|
D|------------------------------------------------|
A|------------------------------------------------|
D|------------------------------------------------|

PART 6
E|---------------------------------------------------|
B|--15-15-15-15-15-15-15-15-15-15-15-15-15-15-15-15--|
G|--14-14-14-14-14-14-14-14-14-14-14-14-14-14-14-14--|
D|---------------------------------------------------|
A|---------------------------------------------------|
D|---------------------------------------------------|

E|---------------------------------------------------|
B|--15-17-17-17-17-17-17-17-17-17-17-17-17-17-17-17--|
G|--14-14-14-14-14-14-14-14-14-14-14-14-14-14-14-14--|
D|---------------------------------------------------|
A|---------------------------------------------------|
D|---------------------------------------------------|

E|---------------------------------------------------|
B|--13-13-13-13-13-13-13-13-13-13-13-13-13-13-13-13--|
G|--14-14-14-14-14-14-14-14-14-14-14-14-14-14-14-14--|
D|---------------------------------------------------|
A|---------------------------------------------------|
D|---------------------------------------------------|

E|---------------------------------------------------|
B|-----11----11----11----11----11----11----11----11--|
G|--14----14----14----14----14----14----14----14-----|
D|---------------------------------------------------|
A|---------------------------------------------------|
D|---------------------------------------------------|

E|---------------------------------------------------|
B|--15-15-15-15-15-15-15-15-15-15-15-15-15-15-15-15--|
G|--14-14-14-14-14-14-14-14-14-14-14-14-14-14-14-14--|
D|---------------------------------------------------|
A|---------------------------------------------------|
D|---------------------------------------------------|

E|---------------------------------------------------|
B|--15-17-17-17-17-17-17-17-17-17-17-17-17-17-17-17--|
G|--14-14-14-14-14-14-14-14-14-14-14-14-14-14-14-14--|
D|---------------------------------------------------|
A|---------------------------------------------------|
D|---------------------------------------------------|

E|--------15-------15-------15-------15-------15-----|
B|-----13-------13-------13-------13--------13---13--|
G|--15-------15-------15-------15--------15----------|
D|---------------------------------------------------|
A|---------------------------------------------------|
D|---------------------------------------------------|

E|--------12-------13-------12-------13--|
B|-----11-------11-------11-------11-----|
G|--14-------14-------14-------14--------|
D|---------------------------------------|
A|---------------------------------------|
D|---------------------------------------|

(Repeat PART 4)

(Repeat PART 5)

PART 7
E|--------------------------------------------|
B|--------------------------------------------|
G|--------------------------------------------|
D|--0----0----0----0----0----0----8-7-8-10----|
A|--0----0----0----0----0----0----8-7-8-10----|
D|--0----0----0----0----0----0----8-7-8-10----|x2

E|--------------------|
B|--------------------|
G|--------------------|
D|--0----0----0----0--|
A|--0----0----0----0--|
D|--0----0----0----0--|

(Repeat INTRUMENTAL 2)

(Repeat PART 6)

OUTRO
E|----------------------------------------------------|
B|----------------------------------------------------|
G|--7-------------------------5-5-------------9-7-5---|
D|--7-0-0-3-0-0-------0-3-0-0-5-5-------3-2-0-9-7-5---|
A|--5-0-0-3-0-0-------0-3-0-0-3-3-------3-2-0-7-5-3---|
D|----0-0-3-0-0-------0-3-0-0-----------3-2-0---------|

E|--------------------------|
B|--------------------------|
G|--------------------------|
D|---8-8---8-8---8-8---8-8--|
A|---8-8---8-8---8-8---8-8--|
D|---8-8---8-8---8-8---8-8--|x2

E|------------8/9-10--|
B|-------8/10---------|
G|--7/10--------------|
D|--------------------|
A|--------------------|
D|--------------------|
Tap to rate this tab
 
# A B C D E F G H I J K L M N O P Q R S T U V W X Y Z