Song name
# A B C D E F G H I J K L M N O P Q R S T U V W X Y Z

Biffy Clyro - Whos Got A Match tab

#----------------------------------PLEASE NOTE---------------------------------#
#This file is the author's own work and represents their interpretation of the #
#song. You may only use this file for private study, scholarship, or research. #
#------------------------------------------------------------------------------##

                                WHOS GOT A MATCH?
                           As recorded by Biffy Clyro
                          (From the 2007 Album PUZZLE)

Words by Simon Neil

Music by Biffy Clyro
Transcribed by GuitarHero_JP

Gtr I (D A D G B E) - 'Simon Neil'
Gtr II (D A D G B E) - 'Extra Guitar'

 Intro
  Q=160(8=s8)
 4/4
  Gtr II
           |-3-|                           |-3-|
  H.       E E E   q  q  q  q    q  q  q   E E E
|----------------|-------------|-----------------|
|----------------|-------------|-----------------|
|----------------|-------------|-----------------|
|----------------|-------------|-----------------|
|----------------|-------------|-----------------|
|---------10p9p0-|-7--7--7--7--|-7--7--7--10p9p0-|


                          |-3-|
  q  q  q  q    q  q  q   E E E
|-------------|-------------------|
|-------------|-------------------|
|-------------|-------------------|
|-------------|-------------------|
|-------------|-------------------|
|-7--7--7--7--|-7--7--7--10p9p0---|


 Verse
                          |-3-|                           |-3-|
  q  q  q  q    q  q  q   E E E   q  q  q  q    q  q  q   E E E
|-------------|-----------------|-------------|-----------------|
|-------------|-----------------|-------------|-----------------|
|-------------|-----------------|-------------|-----------------|
|-------------|-----------------|-------------|-----------------|
|-------------|-----------------|-------------|-----------------|
|-7--7--7--7--|-7--7--7--10p9p0-|-7--7--7--7--|-7--7--7--10p9p0-|


                          |-3-|                            |-3-|
  q  q  q  q    q  q  q   E E E   q  q  q  E E   q  q  q   E E E
|-------------|-----------------|--------------|-----------------|
|-------------|-----------------|--------------|-----------------|
|-------------|-----------------|--------------|-----------------|
|-------------|-----------------|--------------|-----------------|
|-------------|-----------------|--------------|-----------------|
|-5--5--5--5--|-5--5--5--10p9p0-|-7--7--7--5-9-|-7--7--7--10p9p0-|


  Gtr I
                            |-3--|                             |-3-|
  q  q  q  q     q  q   q   E E  E   q  q  q  q     q  q   q   E E E
|-------------|--------------------|-------------|-------------------|
|----------9--|-10-----------------|----------9--|-10----------------|
|----8--9-----|-----9--10----------|----8--9-----|-----9--10---------|
|-7-----------|------------10p9----|-7-----------|------------10p9p0-|
|-------------|-----------------10-|-------------|-------------------|
|-------------|--------------------|-------------|-------------------|
|
| Gtr II
|                           |-3--|                             |-3-|
| q  q  q  q     q  q   q   E E  E   q  q  q  q     q  q   q   E E E
|-------------|--------------------|-------------|-------------------|
|-------------|--------------------|-------------|-------------------|
|-------------|--------------------|-------------|-------------------|
|-------------|--------------------|-------------|-------------------|
|-------------|--------------------|-------------|-------------------|
|-7--7--7--7--|--7--7---7--10p9p=0-|-7--7--7--7--|--7--7---7--10p9p0-|


                          |-3--|                              |-3--|
  q  q  q  q    q  q  q   E E  E   q  q  q  q      q  q   q   E E  E
|-------------|------------------|--------------|--------------------|
|----------7--|-8----------------|----------9---|-10-----------------|
|----6--7-----|----7--8----------|----8--9------|-----9--10----------|
|-5-----------|----------10p9----|-7------------|------------10p9----|
|-------------|---------------10-|--------------|-----------------10-|
|-------------|------------------|--------------|--------------------|
|
|                         |-3--|                              |-3--|
| q  q  q  q    q  q  q   E E  E   q  q  q  E E    q  q   q   E E  E
|-------------|------------------|--------------|--------------------|
|-------------|------------------|--------------|--------------------|
|-------------|------------------|--------------|--------------------|
|-------------|------------------|--------------|--------------------|
|-------------|------------------|--------------|--------------------|
|-5--5--5--5--|-5--5--5--10p9p=0-|-7--7--7--5-9-|--7--7---7--10p9p=0-|


   Chorus
                                                     1.
    Gtr I
    q  q  q  E E    q   q   q   E E   q  q  q  E E   q  q  q  E E
||---------------|------------------|--------------|----------------||
||o--------------|------------------|--------------|---------------o||
||---------------|-10--10--10--10-x-|-7--7--7--7-x-|----------------||
||--7--7--7--7-x-|------------------|--------------|-5--5--6--6-x---||
||o--------------|--8---8---8---8-x-|-5--5--5--5-x-|---------------o||
||--7--7--7--7-x-|------------------|--------------|-5--5--6--6-x---||


  2.
            |-3--|
  q  q  q   E E  E
|------------------||
|------------------||
|------------------||
|-5--5--6--10p9----||
|---------------10-||
|-5--5--6----------||


 Pre-Verse
  Gtr I
                            |-3--|                             |-3-|
  q  q  q  q     q  q   q   E E  E   q  q  q  q     q  q   q   E E E
|-------------|--------------------|-------------|-------------------|
|----------9--|-10-----------------|----------9--|-10----------------|
|----8--9-----|-----9--10----------|----8--9-----|-----9--10---------|
|-7-----------|------------10p9----|-7-----------|------------10p9p0-|
|-------------|-----------------10-|-------------|-------------------|
|-------------|--------------------|-------------|-------------------|
|
| Gtr II
|                           |-3--|                             |-3-|
| q  q  q  q     q  q   q   E E  E   q  q  q  q     q  q   q   E E E
|-------------|--------------------|-------------|-------------------|
|-------------|--------------------|-------------|-------------------|
|-------------|--------------------|-------------|-------------------|
|-------------|--------------------|-------------|-------------------|
|-------------|--------------------|-------------|-------------------|
|-7--7--7--7--|--7--7---7--10p9p=0-|-7--7--7--7--|--7--7---7--10p9p0-|

Verse
Chorus


   Bridge
                                               1.
    Gtr I
                         PM                           PM
    E E H.        H    E E  Q    E E H.        H    E E Q
||--------------|--------------|-------------|---------------||
||o-------------|--------------|-------------|--------------o||
||--------------|--------------|-------------|---------------||
||--7-----------|-----------7--|-7-----------|---------------||
||o-7-----------|-----------7--|-7-----------|----------2---o||
||--7-----------|--------7-10--|-7-----------|--------2-5----||


  2.
   |--3--|  |--3--|  |--3--|  |-3--|
   E  E  E  E  E  E  E  E  E  E  E E
|------------------------------------||
|------------------------------------||
|-14-14-14-14-14-14-14-14-14---------||
|------------------------------------||
|-12-12-12-12-12-12-12-12-12-15p14-0-||
|----------------------------15p14-0-||


             |-3--|              |-3--|
   Q  Q  Q   E  E E    Q  Q  Q   E  E E
|-------------------|-------------------|
|-------------------|-------------------|
|-------------------|-------------------|
|-------------------|-------------------|
|-12--0--0--15p14-0-|-12--0--0--15p14-0-|
|-12--0--0--15p14-0-|-12--0--0--15p14-0-|


             |-3--|              |-3--|
   Q  Q  Q   E  E E    Q  Q  Q   E  E E
|-------------------|-------------------|
|-------------------|-------------------|
|-------------------|-------------------|
|-------------------|-------------------|
|-12--0--0--15p14-0-|-12--0--0--15p14-0-|
|-12--0--0--15p14-0-|-12--0--0--15p14-0-|


                               |-3--|                                |-3--|
   Q  Q  Q   E  E    Q  Q  Q   E  E E    Q  Q  Q   E  E    Q  Q  Q   E  E E
|-----------------|-------------------|-----------------|-------------------|
|-----------------|-------------------|-----------------|-------------------|
|-----------------|-------------------|-----------------|-------------------|
|-----------------|-------------------|-----------------|-------------------|
|-12--0--0--10-14-|-12--0--0--15p14-0-|-12--0--0--10-14-|-12--0--0--15p14-0-|
|-12--0--0--10-14-|-12--0--0--15p14-0-|-12--0--0--10-14-|-12--0--0--15p14-0-|


   Interlude
    |-3-| |-3-| |-3-| |-3-|    |--3--|  |--3--|  |--3--|  |--3--|
    E E E E E E E E E E E E    E  E  E  E  E  E  E  E  E  E  E  E
||--------------------------|--------------------------------------|
||o-------------------------|--------------------------------------|
||--9-9-9-9-9-9-9-9-9-9-9-9-|-10-10-10-10-10-10-10-10-10-10-10-10--|
||--7-7-7-7-7-7-7-7-7-7-7-7-|-10-10-10-10-10-10-10-10-10-10-10-10--|
||o-7-7-7-7-7-7-7-7-7-7-7-7-|--8--8--8--8--8--8--8--8--8--8--8--8--|
||--7-7-7-7-7-7-7-7-7-7-7-7-|--------------------------------------|


                            1.,2.,3.
  |-3-| |-3-| |-3-| |-3-|   |-3-| |-3-| |-3-| |-3-|
  E E E E E E E E E E E E   E E E E E E E E E E E E  4x
|-------------------------|--------------------------||
|-------------------------|-------------------------o||
|-7-7-7-7-7-7-7-7-7-7-7-7-|-7-7-7-7-7-7-7-7-7-7-7-7--||
|-7-7-7-7-7-7-7-7-7-7-7-7-|-7-7-7-7-7-7-7-7-7-7-7-7--||
|-5-5-5-5-5-5-5-5-5-5-5-5-|-------------------------o||
|-------------------------|-5-5-5-5-5-5-6-6-6-6-6-6--||


  4.
  |-3-| |-3-| |-3-|  |-3-|
  E E E E E E E E E  E E E
|--------------------------||
|--------------------------||
|-7-7-7-7-7-7-7-7-7--------||
|-7-7-7-7-7-7-7-7-7--------||
|-------------------10p9-0-||
|-5-5-5-5-5-5-6-6-6-10p9-0-||


 Outro
            |-3-|             |-3-|
  q  q  q   E E E   q  q  q   E E E   q  q  q  E E   H     H
|-----------------|-----------------|--------------|------------*|
|-----------------|-----------------|--------------|------------*|
|-----------------|-----------------|--------------|------------*|
|-7--7--7---------|-7--7--7---------|-7--7--7------|-7\---------*|
|-7--7--7--10-9-0-|-7--7--7--10-9-0-|-7--7--7--5-9-|-7\---------*|
|-7--7--7--10-9-0-|-7--7--7--10-9-0-|-7--7--7--5-9-|-7\---------*|


Duration Legend
---------------
W - whole; H - half; Q - quarter; E - 8th; S - 16th; T - 32nd; X - 64th; a - acciaccatura
+ - note tied to previous; . - note dotted; .. - note double dotted
Uncapitalized letters represent notes that are staccato (1/2 duration)
Irregular groupings are notated above the duration line
Duration letters will always appear directly above the note/fret number it represents the
duration for.  Duration letters with no fret number below them represent rests.  Multi-
bar rests are notated in the form Wxn, where n is the number of bars to rest for.  Low
melody durations appear below the staff

Tablature Legend
----------------
 h   - hammer-on
 p   - pull-off
 b   - bend
 pb  - pre-bend
 r   - bend release (if no number after the r, then release immediately)
 /\  - slide into or out of (from/to "nowhere")
 s   - legato slide
 S   - shift slide
  - natural harmonic
[n]  - artificial harmonic
n(n) - tapped harmonic
 ~   - vibrato
 tr  - trill
 T   - tap
 TP  - trem. picking
 PM  - palm muting
\n/  - tremolo bar dip; n = amount to dip
 \n  - tremolo bar down
 n/  - tremolo bar up
/n\  - tremolo bar inverted dip
 =   - hold bend; also acts as connecting device for hammers/pulls
 <>  - volume swell (louder/softer)
 x   - on rhythm slash represents muted slash
 o   - on rhythm slash represents single note slash

Misc Legend
-----------
 |  - bar
||  - double bar
||o - repeat start
o|| - repeat end
*|  - double bar (ending)
 :  - bar (freetime)
 $  - Segno
 &  - Coda
Tempo markers -  = BPM(8/16=s8/s16), where s8 = swing 8ths, s16 = swing 16ths


***************************************************************************************
* Generated using Power Tab Editor by Brad Larsen - http://powertab.guitarnetwork.org *
***************************************************************************************
Tap to rate this tab
# A B C D E F G H I J K L M N O P Q R S T U V W X Y Z