Song name
# A B C D E F G H I J K L M N O P Q R S T U V W X Y Z

Biffy Clyro - Saturday Superhouse tab

#----------------------------------PLEASE NOTE---------------------------------#
#This file is the author's own work and represents their interpretation of the #
#song. You may only use this file for private study, scholarship, or research. #
#------------------------------------------------------------------------------##

                               SATURDAY SUPERHOUSE
                           As recorded by Biffy Clyro
                          (From the 2007 Album PUZZLE)

Words by Simon Neil

Music by Biffy Clyro
Transcribed by GuitarHero_JP

Gtr I (D A D G B E) - 'Simon Neil'
Gtr II (D A D G B E) - 'Extra Guitar'

 Intro
  Q=171
 4/4
  Gtr I
  Q  E E Q  E E   Q  E E Q  E E   +E  E E E E E E E   E E E E  E E E E
|----0-0----0---|----0------0---|-------------------|------------------|
|----5-5----5---|----5------5---|-------5-5-----5---|-----5---/5-5-5---|
|----6-6----6---|----6------6---|-------6-6-----6---|-----6---/6-6-6---|
|---------------|-------------4-|-(4)-4-4-4-4---4---|-4---4----4-4-4-4-|
|---------------|-------------4-|-(4)-4-4-4-4---4---|-4---4----4-4-4-4-|
|---------------|-------------4-|-(4)-4-4-4-4---4---|-4---4----4-4-4-4-|


  +E  E E E E E E E   E E E E  E E E E
|-------------------|------------------|
|-------5-5-----5---|-----5---/5-5-5---|
|-------6-6-----6---|-----6---/6-6-6---|
|-(4)-4-4-4-4---4---|-4---4----4-4-4-4-|
|-(4)-4-4-4-4---4---|-4---4----4-4-4-4-|
|-(4)-4-4-4-4---4---|-4---4----4-4-4-4-|


   Verse
    +E  E E E E E E E   E E E E  E E E E
||--------------------|------------------|
||o-------5-5-----5---|-----5---/5-5-5---|
||--------6-6-----6---|-----6---/6-6-6---|
||--(4)-4-4-4-4---4---|-4---4----4-4-4-4-|
||o-(4)-4-4-4-4---4---|-4---4----4-4-4-4-|
||--(4)-4-4-4-4---4---|-4---4----4-4-4-4-|


  +E  E E E E E E E   E E E E  E E E E
|-------------------|------------------|
|-------5-5-----5---|-----5---/5-5-5-5-|
|-------6-6-----6---|-----6---/6-6-6-6-|
|-(4)-4-4-4-4---4---|-4---4----4-4-4-0-|
|-(4)-4-4-4-4---4---|-4---4----4-4-4-0-|
|-(4)-4-4-4-4---4---|-4---4----4-4-4-0-|


                                                            1.
  +E  E E E E E E E   E E E E E E E E   +E  E E E E E E E   E E E E E E E E
|-------------------|-----------------|-------------------|-------------------||
|-(5)-5-5-5-5-5-5-5-|-5-5-5-5-5-5-5-2-|-(2)-2-2-2-2-2-2-2-|-2-2-2------------o||
|-(6)-6-6-6-6-6-6-6-|-6-6-6-6-6-6-6-2-|-(2)-2-2-2-2-2-2-2-|-2-2-2-------------||
|-(0)-0-0-0-0-0-0-0-|-0-0-0-0-0-0-0-4-|-(4)-4-4-4-4-4-4-4-|-4-4-4-0-2-2-2-4---||
|-(0)-0-0-0-0-0-0-0-|-0-0-0-0-0-0-0-2-|-(2)-2-2-2-2-2-2-2-|-2-2-2-0-2-2-2-4--o||
|-(0)-0-0-0-0-0-0-0-|-0-0-0-0-0-0-0---|-------------------|-------0-2-2-2-4---||


  2.
  E E E E E E E E
|-----------------||
|-2-2-2-2-2-2-2---||
|-2-2-2-2-2-2-2-2-||
|-4-4-4-4-4-4-4-0-||
|-2-2-2-2-2-2-2-0-||
|---------------0-||


   Chorus
    +E  E Q  E E E E   +E  E Q  E E E E
||-------------------|------------------|
||o------------------|------------------|
||--(2)-2-2--2-2-2-4-|-(4)-4-4--4-4-4---|
||--(0)-0-0--0-0-0-2-|-(2)-2-2--2-2-2-4-|
||o-(0)-0-0--0-0-0-2-|-(2)-2-2--2-2-2-4-|
||--(0)-0-0--0-0-0-2-|-(2)-2-2--2-2-2-4-|


  +E  E E E E E E E   E E E E E E E E
|-------------------|------------------||
|-------5-5-----5-5-|-----5-5---------o||
|-------6-6-----6-6-|-----6-6-------2--||
|-(4)-4-4-4-4-4-4-4-|-4-4-4-4-4-4-4-0--||
|-(4)-4-4-4-4-4-4-4-|-4-4-4-4-4-4-4-0-o||
|-(4)-4-4-4-4-4-4-4-|-4-4-4-4-4-4-4-0--||


  E E Q  E E E E   +E  E Q  E E E E   +E  E Q  E E E E   +E  E Q  E E E E
|----------------|------------------|------------------|-------------------|
|----------------|------------------|------------------|-------------------|
|-2-2-2--2-2-2-4-|-(4)-4-4--4-4-4-9-|-(9)-9-9--9-9-9-2-|-(2)-2-2--2-2-2-2--|
|-0-0-0--0-0-0-2-|-(2)-2-2--2-2-2-9-|-(9)-9-9--9-9-9-0-|-(0)-0-0--0-0-0-0--|
|-0-0-0--0-0-0-2-|-(2)-2-2--2-2-2-7-|-(7)-7-7--7-7-7-0-|-(0)-0-0--0-0-0-0--|
|-0-0-0--0-0-0-2-|-(2)-2-2--2-2-2-7-|-(7)-7-7--7-7-7-0-|-(0)-0-0--0-0-0-0--|


                                 Gtrs I, II
  Q  Q  E E E E   +E  E Q  E E E E
|---------------|------------------|
|---------------|------------------|
|-2--2--2-2-2-4-|-(4)-4-4--4-4-4---|
|-0--0--0-0-0-2-|-(2)-2-2--2-2-2-4-|
|-0--0--0-0-0-2-|-(2)-2-2--2-2-2-4-|
|-0--0--0-0-0-2-|-(2)-2-2--2-2-2-4-|

Then play from the intro


 Interlude
  Gtr I
   Q.   E Q.   E    Q.   E Q.   E    Q.   E Q.   E    W
|----------------|----------------|----------------|--------|
|----------------|----------------|----------------|--------|
|--------------4-|--6----4--------|--------------4-|--------|
|--4----6-7------|---------7----6-|--4----6-7------|--4-----|
|----------------|----------------|----------------|--------|
|----------------|----------------|----------------|--------|
|
| Gtr II
| +W               +W               +W               +W
|----------------|----------------|----------------|--------|
|----------------|----------------|----------------|--------|
|----------------|----------------|----------------|--------|
|-(4)------------|-(4)------------|-(4)------------|-(4)----|
|-(4)------------|-(4)------------|-(4)------------|-(4)----|
|-(4)------------|-(4)------------|-(4)------------|-(4)----|


  Q.   E Q.   E    Q.   E Q.   E    W           +W
|---------------|----------------|------------|--------|
|---------------|----------------|------------|--------|
|-------------2-|--4----2--------|------------|--------|
|-2----4-6------|---------6----4-|--2---------|-(2)----|
|---------------|----------------|------------|--------|
|---------------|----------------|------------|--------|
|
| W               +W               +W           +W
|---------------|----------------|------------|--------|
|---------------|----------------|------------|--------|
|---------------|----------------|------------|--------|
|---------------|----------------|------------|--------|
|---------------|----------------|------------|--------|
|-2-------------|-(2)------------|-(2)--------|-(2)----|


  Q.     E Q.     E   Q.     E Q.     E   Q.     E Q.     E   W
|-------------------|-------------------|-------------------|------------------|
|-------------------|-------------------|-------------------|------------------|
|-----------------4-|-6------4----------|-----------------4-|------------------|
|-4------6-7--------|----------7------6-|-4------6-7--------|-4----------------|
|-------------------|-------------------|-------------------|------------------|
|-------------------|-------------------|-------------------|------------------|
|
| PM---------------------------|    PM--------------------------------|
| E  E E E E  E E E   E  E E E E  E E E   E  E E E E  E E E   E E E E E E E E
|-------------------|-------------------|-------------------|------------------|
|-------------------|-------------------|-------------------|------------------|
|-------------------|-------------------|-------------------|------------------|
|-------------------|-------------6-----|-------------------|-----------6-7-9--|
|-9--9-9-7-9--9-9-7-|-9--9-9-7-9----9-7-|-9--9-9-7-9--9-9-7-|-9-9-9-7-9--------|
|-------------------|-------------------|-------------------|------------------|


  Q.     E Q.     E   Q.     E Q.     E   E E E Q  E E E   E Q  E E E E E
|-------------------|-------------------|----------------|-----------------|
|-------------------|-------------------|----------------|-----------------|
|-----------------2-|-4------2----------|----------------|-----------------|
|-2------4-6--------|----------6------4-|-7-6-7-0----7-6-|-7-0----7-6-7-4--|
|-------------------|-------------------|-7-6-7-0--0-7-6-|-7-0--0-7-6-7-4--|
|-------------------|-------------------|-7-6-7-0--0-7-6-|-7-0--0-7-6-7-4--|
|
| PM----------------------------------|
| E  E E E E  E E E   E  E E E E  E E E   E E E Q  E E E   E Q  E E E E E
|-------------------|-------------------|----------------|-----------------|
|-------------------|-------------------|----------------|-----------------|
|-------------------|-------------------|----------------|-----------------|
|-------------------|-------------------|-7-6-7-0----7-6-|-7-0----7-6-7-4--|
|-7--7-7-7-7--7-7-9-|-7--7-7-7-7--7-7-7-|-7-6-7-0--0-7-6-|-7-0--0-7-6-7-4--|
|-------------------|-------------------|-7-6-7-0--0-7-6-|-7-0--0-7-6-7-4--|


  Gtr I
  +Q   E E Q  E E   Q  E H    E
|------0-0----0---|----0--------||
|------5-5----5---|----5--------||
|------6-6----6---|----6------2-||
|-(4)-------------|-----------0-||
|-(4)-------------|-----------0-||
|-(4)-------------|-----------0-||

Chorus


   Chorus 2
    Gtr I
     E E Q     E E E  E   +E  E Q     E E E  E
||----------------------|----------------------|
||o---------------------|----------------------|
||---2-2-2-----2-2-2--4-|-(4)-4-4-----4-4-4----|
||---0-0-0-----0-0-0--2-|-(2)-2-2-----2-2-2--4-|
||o--0-0-0-----0-0-0--2-|-(2)-2-2-----2-2-2--4-|
||---0-0-0-----0-0-0--2-|-(2)-2-2-----2-2-2--4-|
|
|   Gtr II
|    E Q    E  E Q    E    E  Q    E  E Q    E
||--14-----12h14-----16h|=17------16h17-----12h|
||o---------------------|----------------------|
||----------------------|----------------------|
||----------------------|----------------------|
||o---------------------|----------------------|
||----------------------|----------------------|


  +E  E E  E  E E E  E    E E E  E  E E E  E
|----------------------|----------------------||
|-------5--5------5--5-|------5--5-----------o||
|-------6--6------6--6-|------6--6---------2--||
|-(4)-4-4--4--4-4-4--4-|--4-4-4--4--4-4-4--0--||
|-(4)-4-4--4--4-4-4--4-|--4-4-4--4--4-4-4--0-o||
|-(4)-4-4--4--4-4-4--4-|--4-4-4--4--4-4-4--0--||
|
|  E  Q    E  E Q    E    E Q    E  E Q    E
|-14------12h14-----12h|=14-----12h14-----12--||
|----------------------|---------------------o||
|----------------------|----------------------||
|----------------------|----------------------||
|----------------------|---------------------o||
|----------------------|----------------------||


   E E Q     E E E  E   +E  E Q     E E E  E
|---------------------|----------------------|
|---------------------|----------------------|
|--2-2-2-----2-2-2--4-|-(4)-4-4-----4-4-4--9-|
|--0-0-0-----0-0-0--2-|-(2)-2-2-----2-2-2--9-|
|--0-0-0-----0-0-0--2-|-(2)-2-2-----2-2-2--7-|
|--0-0-0-----0-0-0--2-|-(2)-2-2-----2-2-2--7-|
|
|  E Q    E  E Q    E    E  Q    E  E Q    E
|-14-----12h14-----16h|=17------16h17-----12h|
|---------------------|----------------------|
|---------------------|----------------------|
|---------------------|----------------------|
|---------------------|----------------------|
|---------------------|----------------------|


  +E  E Q     E E E  E   +E  E Q     E E E  E
|----------------------|-----------------------|
|----------------------|-----------------------|
|-(9)-9-9-----9-9-9--2-|-(2)-2-2-----2-2-2--2--|
|-(9)-9-9-----9-9-9--0-|-(0)-0-0-----0-0-0--0--|
|-(7)-7-7-----7-7-7--0-|-(0)-0-0-----0-0-0--0--|
|-(7)-7-7-----7-7-7--0-|-(0)-0-0-----0-0-0--0--|
|
|  E  Q    E  E Q    E    E  Q    E  E Q    E
|-14------12h14-----12h|=14------12h14-----12--|
|----------------------|-----------------------|
|----------------------|-----------------------|
|----------------------|-----------------------|
|----------------------|-----------------------|
|----------------------|-----------------------|


   Q   Q     E E E  E   +E  E Q     E E E  E
|---------------------|----------------------|
|---------------------|----------------------|
|--2---2-----2-2-2--4-|-(4)-4-4-----4-4-4----|
|--0---0-----0-0-0--2-|-(2)-2-2-----2-2-2--4-|
|--0---0-----0-0-0--2-|-(2)-2-2-----2-2-2--4-|
|--0---0-----0-0-0--2-|-(2)-2-2-----2-2-2--4-|
|
|  E Q    E  E Q    E    E  Q    E  E Q    E
|-14-----12h14-----16h|=17------16h17-----12h|
|---------------------|----------------------|
|---------------------|----------------------|
|---------------------|----------------------|
|---------------------|----------------------|
|---------------------|----------------------|


   E E E  E  E E E  E    E E E  E  E E E  E
|---------------------|----------------------|
|------5--5------5--5-|------5--5------------|
|------6--6------6--6-|------6--6---------2--|
|--4-4-4--4--4-4-4--4-|--4-4-4--4--4-4-4--0--|
|--4-4-4--4--4-4-4--4-|--4-4-4--4--4-4-4--0--|
|--4-4-4--4--4-4-4--4-|--4-4-4--4--4-4-4--0--|
|
|  E Q    E  E Q    E    E Q    E  E Q    E
|-14-----12h14-----12h|=14-----12h14-----12--|
|---------------------|----------------------|
|---------------------|----------------------|
|---------------------|----------------------|
|---------------------|----------------------|
|---------------------|----------------------|


   E E Q     E E E  E   +E  E Q     E E E  E
|---------------------|----------------------|
|---------------------|----------------------|
|--2-2-2-----2-2-2--4-|-(4)-4-4-----4-4-4----|
|--0-0-0-----0-0-0--2-|-(2)-2-2-----2-2-2--4-|
|--0-0-0-----0-0-0--2-|-(2)-2-2-----2-2-2--4-|
|--0-0-0-----0-0-0--2-|-(2)-2-2-----2-2-2--4-|
|
|  E Q    E  E Q    E    E  Q    E  E Q    E
|-14-----12h14-----16h|=17------16h17-----12h|
|---------------------|----------------------|
|---------------------|----------------------|
|---------------------|----------------------|
|---------------------|----------------------|
|---------------------|----------------------|


  +E  E E  E  E E E  E    E E E  E  E E E  E
|----------------------|----------------------|
|-------5--5------5--5-|------5--5------------|
|-------6--6------6--6-|------6--6---------2--|
|-(4)-4-4--4--4-4-4--4-|--4-4-4--4--4-4-4--0--|
|-(4)-4-4--4--4-4-4--4-|--4-4-4--4--4-4-4--0--|
|-(4)-4-4--4--4-4-4--4-|--4-4-4--4--4-4-4--0--|
|
|  E  Q    E  E Q    E    E Q    E  E Q    E
|-14------12h14-----12h|=14-----12h14-----12--|
|----------------------|----------------------|
|----------------------|----------------------|
|----------------------|----------------------|
|----------------------|----------------------|
|----------------------|----------------------|


   E E Q     E E E  E   +E  E Q     E E E  E
|---------------------|----------------------||
|---------------------|----------------------||
|--2-2-2-----2-2-2--4-|-(4)-4-4-----4-4-4----||
|--0-0-0-----0-0-0--2-|-(2)-2-2-----2-2-2--4-||
|--0-0-0-----0-0-0--2-|-(2)-2-2-----2-2-2--4-||
|--0-0-0-----0-0-0--2-|-(2)-2-2-----2-2-2--4-||
|
|  E Q    E  E Q    E    E  Q    E  E Q    E
|-14-----12h14-----16h|=17------16h17-----12-||
|---------------------|----------------------||
|---------------------|----------------------||
|---------------------|----------------------||
|---------------------|----------------------||
|---------------------|----------------------||


   Outro
    +E  E E E E E E E   E E E E E E E E  3x +Q   E E Q  E E   Q  E E Q  E E
||--------------------|------------------||------0-0----0---|----0------0---|
||o-------5-5-----5-5-|-----5-5-----5---o||------5-5----5---|----5------5---|
||--------6-6-----6-6-|-----6-6-----6----||------6-6----6---|----6------6---|
||--(4)-4-4-4-4-4-4-4-|-4-4-4-4-4-4-4-4--||-(4)-------------|-------------4-|
||o-(4)-4-4-4-4-4-4-4-|-4-4-4-4-4-4-4-4-o||-(4)-------------|-------------4-|
||--(4)-4-4-4-4-4-4-4-|-4-4-4-4-4-4-4-4--||-(4)-------------|-------------4-|


  +H.      Q    +W
|-------------|--------*|
|-------------|--------*|
|-------------|--------*|
|-(4)\=====1--|-(1)----*|
|-(4)\=====1--|-(1)----*|
|-(4)\=====1--|-(1)----*|


Duration Legend
---------------
W - whole; H - half; Q - quarter; E - 8th; S - 16th; T - 32nd; X - 64th; a - acciaccatura
+ - note tied to previous; . - note dotted; .. - note double dotted
Uncapitalized letters represent notes that are staccato (1/2 duration)
Irregular groupings are notated above the duration line
Duration letters will always appear directly above the note/fret number it represents the
duration for.  Duration letters with no fret number below them represent rests.  Multi-
bar rests are notated in the form Wxn, where n is the number of bars to rest for.  Low
melody durations appear below the staff

Tablature Legend
----------------
 h   - hammer-on
 p   - pull-off
 b   - bend
 pb  - pre-bend
 r   - bend release (if no number after the r, then release immediately)
 /\  - slide into or out of (from/to "nowhere")
 s   - legato slide
 S   - shift slide
  - natural harmonic
[n]  - artificial harmonic
n(n) - tapped harmonic
 ~   - vibrato
 tr  - trill
 T   - tap
 TP  - trem. picking
 PM  - palm muting
\n/  - tremolo bar dip; n = amount to dip
 \n  - tremolo bar down
 n/  - tremolo bar up
/n\  - tremolo bar inverted dip
 =   - hold bend; also acts as connecting device for hammers/pulls
 <>  - volume swell (louder/softer)
 x   - on rhythm slash represents muted slash
 o   - on rhythm slash represents single note slash

Misc Legend
-----------
 |  - bar
||  - double bar
||o - repeat start
o|| - repeat end
*|  - double bar (ending)
 :  - bar (freetime)
 $  - Segno
 &  - Coda
Tempo markers -  = BPM(8/16=s8/s16), where s8 = swing 8ths, s16 = swing 16ths


***************************************************************************************
* Generated using Power Tab Editor by Brad Larsen - http://powertab.guitarnetwork.org *
***************************************************************************************
Tap to rate this tab
# A B C D E F G H I J K L M N O P Q R S T U V W X Y Z