Song name
# A B C D E F G H I J K L M N O P Q R S T U V W X Y Z

Biffy Clyro - That Golden Rule tab

			     THAT GOLDEN RULE - Biffy Clyro


Tuning: Drop C

Intro:

D|--------------|-----------|-------------|----------------|
A|--------------|-----------|-------------|----------------|
F|--------------|-----------|-------------|----------------|
C|--------------|----------0|-0-12--12---0|-0-12-0-14-10--0|
G|--------------|----------0|-0-12--12---0|-0-12-0-14-10--0|
C|10/14-10/14-10|/14-10/14-0|-0-12--12---0|-0-12-0-14-10--0|

D|--------------|--------------|-------------|---------------|
A|--------------|--------------|-------------|---------------|
F|--------------|--------------|-------------|---------------|
C|-0-10--10----0|-0-10-0-8-7--0|-0-12--12---0|-0-12-0-14-10--|
G|-0-10--10----0|-0-10-0-8-7--0|-0-12--12---0|-0-12-0-14-10--|
C|-0-10--10----0|-0-10-0-8-7--0|-0-12--12---0|-0-12-0-14-10--|

Intro x2



Verse

D|--------------|-----------|-------------|------------------|
A|--------------|-----------|-------------|------------------|
F|--------------|-----------|-------------|------------------|
C|--------------|----------0|-0-12--12---0|-0--------10h12--0|
G|--------------|----------0|-0-12--12---0|-0--10h12--------0|
C|10/14-10/14-10|/14-10/14-0|-0-12--12---0|-0---------------0|

D|-------------|------------------|-------------|---------------------|
A|-------------|------------------|-------------|---------------------|
F|-------------|------------------|-------------|---------------------|
C|-0-12--12---0|-0--------10h12--0|-0-10--10---0|-0--------10h12/14--3|
G|-0-12--12---0|-0--10h12--------0|-0-10--10---0|-0--10h12-----------3|
C|-0-12--12---0|-0---------------0|-0-10--10---0|-0------------------3|


D|--------------|-------------|-------------|------------------|
A|--------------|-------------|-------------|------------------|
F|--------------|-------------|-------------|------------------|
C|-3-3--3-3-3--3|-3-3--3-3-3-0|-0-12--12---0|-0--------10h12--0|
G|-3-3--3-3-3--3|-3-3--3-3-3-0|-0-12--12---0|-0--10h12--------0|
C|-3-3--3-3-3--3|-3-3--3-3-3-0|-0-12--12---0|-0---------------0|

D|-------------|------------------|-------------|---------------------|
A|-------------|------------------|-------------|---------------------|
F|-------------|------------------|-------------|---------------------|
C|-0-12--12---0|-0--------10h12--0|-0-10--10---0|-0--------10h12/14--3|
G|-0-12--12---0|-0--10h12--------0|-0-10--10---0|-0--10h12-----------3|
C|-0-12--12---0|-0---------------0|-0-10--10---0|-0------------------3|


D|--------------|------------|
A|--------------|------------|
F|--------------|------------|
C|-3-3--3-3-3--3|-3-3--3-3-3-|
G|-3-3--3-3-3--3|-3-3--3-3-3-|
C|-3-3--3-3-3--3|-3-3--3-3-3-|



Pre Chorus

D|--------------|------------|------------|-----------|
A|--------------|------------|------------|-----------|
F|--------------|------------|------------|-----------|
C|-8--8-8-8--8-8|--8-8-8--8-8|--8-8-8--8-8|--8-8-8--/3|
G|-8--8-8-8--8-8|--8-8-8--8-8|--8-8-8--8-8|--8-8-8--/3|
C|-8--8-8-8--8-8|--8-8-8--8-8|--8-8-8--8-8|--8-8-8--/3|

D|------------|------------|------------|-----------|
A|------------|------------|------------|-----------|
F|------------|------------|------------|-----------|
C|--3-3-3--3-3|--3-3-3--3-0|--0-0-0--0-0|--0-0-0---8|
G|--3-3-3--3-3|--3-3-3--3-0|--0-0-0--0-0|--0-0-0---8|
C|--3-3-3--3-3|--3-3-3--3-0|--0-0-0--0-0|--0-0-0---8|

D|------------|------------|------------|----------|
A|------------|------------|------------|----------|
F|------------|------------|------------|----------|
C|--8-8-8--8-8|--8-8-8--8-8|--8-8-8--8-8|--8-8-8--0|
G|--8-8-8--8-8|--8-8-8--8-8|--8-8-8--8-8|--8-8-8--0|
C|--8-8-8--8-8|--8-8-8--8-8|--8-8-8--8-8|--8-8-8--0|

D|------------|------------|------------|----------|
A|------------|------------|------------|----------|
F|------------|------------|------------|----------|
C|--0-0-0--0-0|--0-0-0--0-3|--3-3-3--3-3|--3-3-3---|
G|--0-0-0--0-0|--0-0-0--0-3|--3-3-3--3-3|--3-3-3---|
C|--0-0-0--0-0|--0-0-0--0-3|--3-3-3--3-3|--3-3-3---|



Chorus

D|------------|------------|------------|------------|
A|------------|------------|------------|------------|
F|------------|------------|------------|------------|
C|12----------|10----------|9-----------|------------|
G|xx----------|xx----------|x-----------|------------|
C|12----------|10----------|9-----------|------------|

D|------------|-------------|-----------|------------|
A|------------|-------------|-----------|------------|
F|------------|-------------|-----------|------------|
C|10----------|-------------|/15-\3-----|------------|
G|xx----------|-------------|/15-\3-----|------------|
C|10----------|-------------|/15-\3-----|------------|

Chorus x2 but at the end of the second run play

|------------|
|------------|
|------------|
|3-3-3-------|
|3-3-3-------|
|3-3-3-------|



Verse

D|--------------|-----------|-------------|------------------|
A|--------------|-----------|-------------|------------------|
F|--------------|-----------|-------------|------------------|
C|--------------|----------0|-0-12--12---0|-0--------10h12--0|
G|--------------|----------0|-0-12--12---0|-0--10h12--------0|
C|10/14-10/14-10|/14-10/14-0|-0-12--12---0|-0---------------0|

D|-------------|------------------|-------------|---------------------|
A|-------------|------------------|-------------|---------------------|
F|-------------|------------------|-------------|---------------------|
C|-0-12--12---0|-0--------10h12--0|-0-10--10---0|-0--------10h12/14--3|
G|-0-12--12---0|-0--10h12--------0|-0-10--10---0|-0--10h12-----------3|
C|-0-12--12---0|-0---------------0|-0-10--10---0|-0------------------3|


D|--------------|-------------|-------------|------------------|
A|--------------|-------------|-------------|------------------|
F|--------------|-------------|-------------|------------------|
C|-3-3--3-3-3--3|-3-3--3-3-3-0|-0-12--12---0|-0--------10h12--0|
G|-3-3--3-3-3--3|-3-3--3-3-3-0|-0-12--12---0|-0--10h12--------0|
C|-3-3--3-3-3--3|-3-3--3-3-3-0|-0-12--12---0|-0---------------0|

D|-------------|------------------|-------------|---------------------|
A|-------------|------------------|-------------|---------------------|
F|-------------|------------------|-------------|---------------------|
C|-0-12--12---0|-0--------10h12--0|-0-10--10---0|-0--------10h12/14--3|
G|-0-12--12---0|-0--10h12--------0|-0-10--10---0|-0--10h12-----------3|
C|-0-12--12---0|-0---------------0|-0-10--10---0|-0------------------3|


D|--------------|------------|
A|--------------|------------|
F|--------------|------------|
C|-3-3--3-3-3--3|-3-3--3-3-3-|
G|-3-3--3-3-3--3|-3-3--3-3-3-|
C|-3-3--3-3-3--3|-3-3--3-3-3-|



Pre Chorus

D|--------------|------------|------------|-----------|
A|--------------|------------|------------|-----------|
F|--------------|------------|------------|-----------|
C|/8--8-8-8--8-8|--8-8-8--8-8|--8-8-8--8-8|--8-8-8--/3|
G|/8--8-8-8--8-8|--8-8-8--8-8|--8-8-8--8-8|--8-8-8--/3|
C|/8--8-8-8--8-8|--8-8-8--8-8|--8-8-8--8-8|--8-8-8--/3|

D|------------|------------|------------|-----------|
A|------------|------------|------------|-----------|
F|------------|------------|------------|-----------|
C|--3-3-3--3-3|--3-3-3--3-0|--0-0-0--0-0|--0-0-0---8|
G|--3-3-3--3-3|--3-3-3--3-0|--0-0-0--0-0|--0-0-0---8|
C|--3-3-3--3-3|--3-3-3--3-0|--0-0-0--0-0|--0-0-0---8|

D|------------|------------|------------|----------|
A|------------|------------|------------|----------|
F|------------|------------|------------|----------|
C|--8-8-8--8-8|--8-8-8--8-8|--8-8-8--8-8|--8-8-8--0|
G|--8-8-8--8-8|--8-8-8--8-8|--8-8-8--8-8|--8-8-8--0|
C|--8-8-8--8-8|--8-8-8--8-8|--8-8-8--8-8|--8-8-8--0|

D|------------|------------|------------|----------|
A|------------|------------|------------|----------|
F|------------|------------|------------|----------|
C|--0-0-0--0-0|--0-0-0--0-3|--3-3-3--3-3|--3-3-3---|
G|--0-0-0--0-0|--0-0-0--0-3|--3-3-3--3-3|--3-3-3---|
C|--0-0-0--0-0|--0-0-0--0-3|--3-3-3--3-3|--3-3-3---|



Chorus

D|------------|------------|------------|------------|
A|------------|------------|------------|------------|
F|------------|------------|------------|------------|
C|12----------|10----------|9-----------|------------|
G|xx----------|xx----------|x-----------|------------|
C|12----------|10----------|9-----------|------------|

D|------------|-------------|-----------|------------|
A|------------|-------------|-----------|------------|
F|------------|-------------|-----------|------------|
C|10----------|-------------|/15-\3-----|------------|
G|xx----------|-------------|/15-\3-----|------------|
C|10----------|-------------|/15-\3-----|------------|

Chorus x2 but at the end of the second run play

|------------|
|------------|
|------------|
|3-3-3-------|
|3-3-3-------|
|3-3-3-------|



Coolness Riff

D|-------------|-------------|
A|-------------|-------------|
F|-------------|-------------|
C|-------------|-------------|
G|-------------|-------------|
C|-0-0-0-0-0-0-|-0-0-0-0-0-0-| Just play along with the bass.....etc....

D|-------|-------|-------|------|-------|-------|-------|----------| 
A|-------|-------|-------|------|-------|-------|-------|----------|
F|-------|-------|-------|------|-------|-------|-------|----------|
C|------2|3------|------7|8-----|------2|3------|------7|8---------|
G|-------|-------|-------|------|-------|-------|-------|----------|
C|-------|-------|-------|------|-------|-------|-------|----------|

D|-------|-------|-------|--------|--------| 
A|-------|-------|-------|--------|--------|
F|-------|-------|-------|--------|--------|
C|------2|3------|------7|8---2-3-|--5---0-|
G|-------|-------|-------|--------|--------|
C|-------|-------|-------|--------|--------|

D|-------|-------|-------|--------|--------| 
A|-------|-------|-------|--------|--------|
F|-------|-------|-------|--------|--------|
C|------2|3------|------7|8---2-3-|--5-----|
G|-------|-------|-------|--------|--------|
C|-------|-------|-------|--------|--------|



SUPERAWESOMENESS RIFF!!! YEAH!!!

D|---------------|---------------| 
A|---------------|---------------|
F|---------------|---------------|
C|0--0---2-3--0--|0--7-8--2-3--5-|
G|0--0---2-3--0--|0--7-8--2-3--5-|
C|0--0---2-3--0--|0--7-8--2-3--5-|

For the first 2 times play using staccato and then let the notes ring for two bars.

D|-----------|-----------|
A|-----------|-----------|
F|-----------|-----------|
C|-5-5-5-5-5-|5-5-5-5-55-|
G|-5-5-5-5-5-|5-5-5-5-55-|
C|-5-5-5-5-5-|5-5-5-5-55-|



Octave Riff With Strings

D|------------------------------|------------------------------|
A|------------------------------|------------------------------|
F|----7--7------7--7/14-14-14-14|----7--7------7--7/14-14-14-14|
C|0-0------0--0-----/-----------|0-0------0--0-----/-----------|
G|0-0-5--5-0--0-5--5/12-12-12-12|0-0-5--5-0--0-5--5/12-12-12-12|
C|0-0-0--0-0--0-0--0--0--0--0--0|0-0-0--0-0--0-0--0--0--0--0--0|

D|------------------------------|------------------------------|
A|------------------------------|------------------------------|
F|----5--5------5--5/12-12-12-12|----5--5------5--5/12-12-12-12|
C|0-0------0--0-----/-----------|0-0------0--0-----/-----------|
G|0-0-3--3-0--0-3--3/10-10-10-10|0-0-3--3-0--0-3--3/10-10-10-10|
C|0-0-0--0-0--0-0--0--0--0--0--0|0-0-0--0-0--0-0--0--0--0--0--0|


D|-----------------------------------|-----------------------------------|
A|-----------------------------------|-----------------------------------|
F|-----------------------------------|-----------------------------------|
C|0-0-12--12-0--0-12--12--12-12-12-12|0-0-12--12-0--0-12--12--12-12-12-12|
G|0-0-12--12-0--0-12--12--12-12-12-12|0-0-12--12-0--0-12--12--12-12-12-12|
C|0-0-12--12-0--0-12--12--12-12-12-12|0-0-12--12-0--0-12--12--12-12-12-12|

D|-----------------------------------|-----------------------------------|
A|-----------------------------------|-----------------------------------|
F|-----------------------------------|-----------------------------------|
C|0-0-10--10-0--0-10--10--10-10-10-10|0-0-10--10-0--0-10--10--10-10-10-10|
G|0-0-10--10-0--0-10--10--10-10-10-10|0-0-10--10-0--0-10--10--10-10-10-10|
C|0-0-10--10-0--0-10--10--10-10-10-10|0-0-10--10-0--0-10--10--10-10-10-10|

Octave Bit x2



Outro

D|----------------------|-------------------|
A|----------------------|-------------------|
F|----------------------|-------------------|
C|0-0-0-0--0-0-0-0------|0-0-0-0--0-0-0-0---|
G|0-0-0-0--0-0-0-0------|0-0-0-0--0-0-0-0---|
C|0-0-0-0--0-0-0-0------|0-0-0-0--0-0-0-0---|

D|------------------------------|---------------------------|
A|------------------------------|---------------------------|
F|------------------------------|---------------------------|
C|10-10-10-10--10-10-10-10------|10-10-10-10--10-10-10-10---|
G|10-10-10-10--10-10-10-10------|10-10-10-10--10-10-10-10---|
C|10-10-10-10--10-10-10-10------|10-10-10-10--10-10-10-10---|

D|----------------------|-------------------|
A|----------------------|-------------------|
F|----------------------|-------------------|
C|8-8-8-8--8-8-8-8------|8-8-8-8--8-8-8-8---|
G|8-8-8-8--8-8-8-8------|8-8-8-8--8-8-8-8---|
C|8-8-8-8--8-8-8-8------|8-8-8-8--8-8-8-8---|

D|------------------------------|---------------------------|
A|------------------------------|---------------------------|
F|------------------------------|---------------------------|
C|10-10-10-10--10-10-10-10------|10-10-10-10--10-10-10-10---|
G|10-10-10-10--10-10-10-10------|10-10-10-10--10-10-10-10---|
C|10-10-10-10--10-10-10-10------|10-10-10-10--10-10-10-10---|

Boom, that wasnt so hard now was it.
MON THE BIFF!

MattStrat123
Tap to rate this tab
# A B C D E F G H I J K L M N O P Q R S T U V W X Y Z